  0
SECTION
  2
HEADER
  9
$ACADVER
  1
AC1015
  9
$ACADMAINTVER
 70
           6
  9
$DWGCODEPAGE
  3
ANSI_1252
  9
$INSBASE
 10
0.0
 20
0.0
 30
0.0
  9
$EXTMIN
 10
-40.58628151718
 20
-10.005038574083
 30
-0.0
  9
$EXTMAX
 10
7.0
 20
19.526589567076
 30
0.0
  9
$LIMMIN
 10
-40.5862815172
 20
-10.0050385741
  9
$LIMMAX
 10
7.0
 20
19.5265895671
  9
$ORTHOMODE
 70
           0
  9
$REGENMODE
 70
           1
  9
$FILLMODE
 70
           1
  9
$QTEXTMODE
 70
           0
  9
$MIRRTEXT
 70
           1
  9
$LTSCALE
 40
1.0
  9
$ATTMODE
 70
           1
  9
$TEXTSIZE
 40
0.2
  9
$TRACEWID
 40
0.05
  9
$TEXTSTYLE
  7
STANDARD
  9
$CLAYER
  8
0
  9
$CELTYPE
  6
Continuous
  9
$CECOLOR
 62
           7
  9
$CELTSCALE
 40
1.0
  9
$DISPSILH
 70
           0
  9
$DIMSCALE
 40
1.0
  9
$DIMASZ
 40
0.18
  9
$DIMEXO
 40
0.0625
  9
$DIMDLI
 40
0.38
  9
$DIMRND
 40
0.0000001
  9
$DIMDLE
 40
0.0
  9
$DIMEXE
 40
0.18
  9
$DIMTP
 40
0.0
  9
$DIMTM
 40
0.0
  9
$DIMTXT
 40
0.18
  9
$DIMCEN
 40
0.09
  9
$DIMTSZ
 40
0.0
  9
$DIMTOL
 70
           0
  9
$DIMLIM
 70
           0
  9
$DIMTIH
 70
           1
  9
$DIMTOH
 70
           1
  9
$DIMSE1
 70
           0
  9
$DIMSE2
 70
           0
  9
$DIMTAD
 70
           0
  9
$DIMZIN
 70
           0
  9
$DIMBLK
  1

  9
$DIMASO
 70
           0
  9
$DIMSHO
 70
           1
  9
$DIMPOST
  1

  9
$DIMAPOST
  1

  9
$DIMALT
 70
           0
  9
$DIMALTD
 70
           2
  9
$DIMALTF
 40
25.4
  9
$DIMLFAC
 40
1.0
  9
$DIMTOFL
 70
           0
  9
$DIMTVP
 40
0.0
  9
$DIMTIX
 70
           0
  9
$DIMSOXD
 70
           0
  9
$DIMSAH
 70
           0
  9
$DIMBLK1
  1

  9
$DIMBLK2
  1

  9
$DIMSTYLE
  2
STANDARD
  9
$DIMCLRD
 70
           0
  9
$DIMCLRE
 70
           0
  9
$DIMCLRT
 70
           0
  9
$DIMTFAC
 40
1.0
  9
$DIMGAP
 40
0.09
  9
$DIMJUST
 70
           0
  9
$DIMSD1
 70
           0
  9
$DIMSD2
 70
           0
  9
$DIMTOLJ
 70
           1
  9
$DIMTZIN
 70
           0
  9
$DIMALTZ
 70
           0
  9
$DIMALTTZ
 70
           0
  9
$DIMUPT
 70
           0
  9
$DIMDEC
 70
           4
  9
$DIMTDEC
 70
           4
  9
$DIMALTU
 70
           2
  9
$DIMALTTD
 70
           2
  9
$DIMTXSTY
  7
STANDARD
  9
$DIMAUNIT
 70
           0
  9
$DIMADEC
 70
           4
  9
$DIMALTRND
 40
0.0
  9
$DIMAZIN
 70
           0
  9
$DIMDSEP
 70
           0
  9
$DIMATFIT
 70
           0
  9
$DIMFRAC
 70
           0
  9
$DIMLDRBLK
  1

  9
$DIMLUNIT
 70
           2
  9
$DIMLWD
 70
           0
  9
$DIMLWE
 70
           0
  9
$DIMTMOVE
 70
           0
  9
$LUNITS
 70
           2
  9
$LUPREC
 70
           4
  9
$SKETCHINC
 40
0.1
  9
$FILLETRAD
 40
0.5
  9
$AUNITS
 70
           0
  9
$AUPREC
 70
           0
  9
$MENU
  1
acad
  9
$ELEVATION
 40
0.0
  9
$PELEVATION
 40
0.0
  9
$THICKNESS
 40
0.0
  9
$LIMCHECK
 70
           0
  9
$CHAMFERA
 40
0.0
  9
$CHAMFERB
 40
0.0
  9
$CHAMFERC
 40
0.0
  9
$CHAMFERD
 40
0.0
  9
$SKPOLY
 70
           0
  9
$TDCREATE
 40
0.000000000
  9
$TDUCREATE
 40
0.000000000
  9
$TDUPDATE
 40
2451930.562500000
  9
$TDUUPDATE
 40
0.000000000
  9
$TDINDWG
 40
0.0000000116
  9
$TDUSRTIMER
 40
0.0000000116
  9
$USRTIMER
 70
           1
  9
$ANGBASE
 50
0.0
  9
$ANGDIR
 70
           1
  9
$PDMODE
 70
           0
  9
$PDSIZE
 40
0.0
  9
$PLINEWID
 40
0.0
  9
$SPLFRAME
 70
           0
  9
$SPLINETYPE
 70
           6
  9
$SPLINESEGS
 70
           8
  9
$HANDSEED
  5
461
  9
$SURFTAB1
 70
           6
  9
$SURFTAB2
 70
           6
  9
$SURFTYPE
 70
           6
  9
$SURFU
 70
           6
  9
$SURFV
 70
           6
  9
$UCSBASE
  2

  9
$UCSNAME
  2

  9
$UCSORG
 10
0.0
 20
0.0
 30
0.0
  9
$UCSXDIR
 10
1.0
 20
0.0
 30
0.0
  9
$UCSYDIR
 10
0.0
 20
1.0
 30
0.0
  9
$UCSORTHOREF
  2

  9
$UCSORTHOVIEW
 70
           0
  9
$UCSORGTOP
 10
0.0
 20
0.0
 30
0.0
  9
$UCSORGBOTTOM
 10
0.0
 20
0.0
 30
0.0
  9
$UCSORGLEFT
 10
0.0
 20
0.0
 30
0.0
  9
$UCSORGRIGHT
 10
0.0
 20
0.0
 30
0.0
  9
$UCSORGFRONT
 10
0.0
 20
0.0
 30
0.0
  9
$UCSORGBACK
 10
0.0
 20
0.0
 30
0.0
  9
$PUCSBASE
  2

  9
$PUCSNAME
  2

  9
$PUCSORG
 10
0.0
 20
0.0
 30
0.0
  9
$PUCSXDIR
 10
1.0
 20
0.0
 30
0.0
  9
$PUCSYDIR
 10
0.0
 20
1.0
 30
0.0
  9
$PUCSORTHOREF
  2

  9
$PUCSORTHOVIEW
 70
           0
  9
$PUCSORGTOP
 10
0.0
 20
0.0
 30
0.0
  9
$PUCSORGBOTTOM
 10
0.0
 20
0.0
 30
0.0
  9
$PUCSORGLEFT
 10
0.0
 20
0.0
 30
0.0
  9
$PUCSORGRIGHT
 10
0.0
 20
0.0
 30
0.0
  9
$PUCSORGFRONT
 10
0.0
 20
0.0
 30
0.0
  9
$PUCSORGBACK
 10
0.0
 20
0.0
 30
0.0
  9
$USERI1
 70
           0
  9
$USERI2
 70
           0
  9
$USERI3
 70
           0
  9
$USERI4
 70
           0
  9
$USERI5
 70
           0
  9
$USERR1
 40
0.0
  9
$USERR2
 40
0.0
  9
$USERR3
 40
0.0
  9
$USERR4
 40
0.0
  9
$USERR5
 40
0.0
  9
$WORLDVIEW
 70
           1
  9
$SHADEDGE
 70
           3
  9
$SHADEDIF
 70
          70
  9
$TILEMODE
 70
           1
  9
$MAXACTVP
 70
          16
  9
$PINSBASE
 10
0.0
 20
0.0
 30
0.0
  9
$PLIMCHECK
 70
           0
  9
$PEXTMIN
 10
0.0
 20
0.0
 30
0.0
  9
$PEXTMAX
 10
0.0
 20
0.0
 30
0.0
  9
$PLIMMIN
 10
0.0
 20
0.0
  9
$PLIMMAX
 10
0.0
 20
0.0
  9
$UNITMODE
 70
           0
  9
$VISRETAIN
 70
           0
  9
$PLINEGEN
 70
           1
  9
$PSLTSCALE
 70
           1
  9
$TREEDEPTH
 70
        3020
  9
$CMLSTYLE
  2
STANDARD
  9
$CMLJUST
 70
           0
  9
$CMLSCALE
 40
1.0
  9
$PROXYGRAPHICS
 70
           0
  9
$MEASUREMENT
 70
           0
  9
$CELWEIGHT
370
           0
  9
$ENDCAPS
280
           0
  9
$JOINSTYLE
280
           0
  9
$LWDISPLAY
290
           0
  9
$INSUNITS
 70
           0
  9
$HYPERLINKBASE
  1

  9
$STYLESHEET
  1

  9
$XEDIT
290
           1
  9
$CEPSNTYPE
380
           0
  9
$PSTYLEMODE
290
           1
  9
$FINGERPRINTGUID
  2

  9
$VERSIONGUID
  2

  9
$EXTNAMES
290
           1
  9
$PSVPSCALE
 40
0.0
  0
ENDSEC
  0
SECTION
  2
CLASSES
  0
CLASS
  1
LWPOLYLINE
  2
AcDbPolyline
  3
AutoCAD 2000
 90
    32768
280
           0
281
           1
  0
CLASS
  1
IMAGE
  2
AcDbRasterImage
  3
ISM
 90
    32895
280
           0
281
           1
  0
CLASS
  1
OLE2FRAME
  2
AcDbOle2Frame
  3
AutoCAD 2000
 90
    32768
280
           0
281
           1
  0
CLASS
  1
HATCH
  2
AcDbHatch
  3
AutoCAD 2000
 90
    32768
280
           0
281
           1
  0
CLASS
  1
DICTIONARYVAR
  2
AcDbDictionaryVar
  3
AutoCAD 2000
 90
    32768
280
           0
281
           0
  0
CLASS
  1
RASTERVARIABLES
  2
AcDbRasterVariables
  3
ISM
 90
    32768
280
           0
281
           0
  0
CLASS
  1
IMAGEDEF
  2
AcDbRasterImageDef
  3
ISM
 90
    32768
280
           0
281
           0
  0
CLASS
  1
IMAGEDEF_REACTOR
  2
AcDbRasterImageDefReactor
  3
ISM
 90
    32769
280
           0
281
           0
  0
CLASS
  1
IDBUFFER
  2
AcDbIdBuffer
  3
AutoCAD 2000
 90
    32768
280
           0
281
           0
  0
CLASS
  1
SPATIAL_FILTER
  2
AcDbSpatialFilter
  3
AutoCAD 2000
 90
    32768
280
           0
281
           0
  0
CLASS
  1
XRECORD
  2
AcDbXrecord
  3
AutoCAD 2000
 90
    32768
280
           0
281
           0
  0
CLASS
  1
SORTENTSTABLE
  2
AcDbSortentsTable
  3
AutoCAD 2000
 90
    32768
280
           0
281
           0
  0
CLASS
  1
LAYER_INDEX
  2
AcDbLayerIndex
  3
AutoCAD 2000
 90
    32768
280
           0
281
           0
  0
CLASS
  1
SPATIAL_INDEX
  2
AcDbSpatialIndex
  3
AutoCAD 2000
 90
    32768
280
           0
281
           0
  0
CLASS
  1
OBJECT_PTR
  2
CAseDLPNTableRecord
  3
"ASE-LPNTableRecord"
 90
    32769
280
           0
281
           0
  0
CLASS
  1
LAYOUT
  2
AcDbLayout
  3
AutoCAD 2000
 90
        0
280
           0
281
           0
  0
CLASS
  1
PLOTSETTINGS
  2
AcDbPlotSettings
  3
AutoCAD 2000
 90
    32768
280
           0
281
           0
  0
CLASS
  1
ACDBDICTIONARYWDFLT
  2
AcDbDictionaryWithDefault
  3
AutoCAD 2000
 90
        0
280
           0
281
           0
  0
CLASS
  1
ACDBPLACEHOLDER
  2
AcDbPlaceHolder
  3
AutoCAD 2000
 90
        0
280
           0
281
           0
  0
ENDSEC
  0
SECTION
  2
TABLES
  0
TABLE
  2
VPORT
  5
7
100
AcDbSymbolTable
 70
           1
  0
VPORT
  5
15
100
AcDbSymbolTableRecord
100
AcDbViewportTableRecord
  2
*ACTIVE
 70
           0
 10
0.0
 20
0.0
 11
1.0
 21
1.0
 12
0.0
 22
0.0
 13
0.0
 23
0.0
 14
0.5
 24
0.5
 15
0.5
 25
0.5
 16
0.0
 26
0.0
 36
1.0
 17
-11.066997720982
 27
1.308100013078
 37
0.0
 40
30.122260703982
 41
1.931846344486
 42
50.0
 43
0.0
 44
0.0
 50
0.0
 51
0.0
 71
           0
 72
         100
 73
           1
 74
           1
 75
           0
 76
           0
 77
           0
 78
           0
281
           0
 65
           0
110
0.0
120
0.0
130
0.0
111
1.0
121
0.0
131
0.0
112
0.0
122
1.0
132
0.0
345
0
346
0
 79
           0
146
0.0
  0
ENDTAB
  0
TABLE
  2
LTYPE
  5
4
100
AcDbSymbolTable
 70
          15
  0
LTYPE
  5
11
100
AcDbSymbolTableRecord
100
AcDbLinetypeTableRecord
  2
ByBlock
 70
          64
  3

 72
          65
 73
           0
 40
0.0
  0
LTYPE
  5
12
100
AcDbSymbolTableRecord
100
AcDbLinetypeTableRecord
  2
ByLayer
 70
          64
  3

 72
          65
 73
           0
 40
0.0
  0
LTYPE
  5
13
100
AcDbSymbolTableRecord
100
AcDbLinetypeTableRecord
  2
Continuous
 70
          64
  3
Solid line
 72
          65
 73
           0
 40
0.0
  0
LTYPE
  5
24
100
AcDbSymbolTableRecord
100
AcDbLinetypeTableRecord
  2
BORDER
 70
           0
  3
BORDER
 72
          65
 73
           6
 40
1.75
 49
0.5
 74
           0
 49
-0.25
 74
           0
 49
0.5
 74
           0
 49
-0.25
 74
           0
 49
0.0
 74
           0
 49
-0.25
 74
           0
  0
LTYPE
  5
25
100
AcDbSymbolTableRecord
100
AcDbLinetypeTableRecord
  2
CENTER
 70
           0
  3
CENTER
 72
          65
 73
           4
 40
2.0
 49
1.25
 74
           0
 49
-0.25
 74
           0
 49
0.25
 74
           0
 49
-0.25
 74
           0
  0
LTYPE
  5
26
100
AcDbSymbolTableRecord
100
AcDbLinetypeTableRecord
  2
DASHDOT
 70
           0
  3
DASHDOT
 72
          65
 73
           4
 40
1.0
 49
0.5
 74
           0
 49
-0.25
 74
           0
 49
0.0
 74
           0
 49
-0.25
 74
           0
  0
LTYPE
  5
27
100
AcDbSymbolTableRecord
100
AcDbLinetypeTableRecord
  2
DASHED
 70
           0
  3
DASHED
 72
          65
 73
           2
 40
0.75
 49
0.5
 74
           0
 49
-0.25
 74
           0
  0
LTYPE
  5
28
100
AcDbSymbolTableRecord
100
AcDbLinetypeTableRecord
  2
DIVIDE
 70
           0
  3
DIVIDE
 72
          65
 73
           6
 40
1.25
 49
0.5
 74
           0
 49
-0.25
 74
           0
 49
0.0
 74
           0
 49
-0.25
 74
           0
 49
0.0
 74
           0
 49
-0.25
 74
           0
  0
LTYPE
  5
29
100
AcDbSymbolTableRecord
100
AcDbLinetypeTableRecord
  2
DOT
 70
           0
  3
DOT
 72
          65
 73
           2
 40
0.25
 49
0.0
 74
           0
 49
-0.25
 74
           0
  0
LTYPE
  5
2A
100
AcDbSymbolTableRecord
100
AcDbLinetypeTableRecord
  2
HIDDEN
 70
           0
  3
HIDDEN
 72
          65
 73
           2
 40
0.375
 49
0.25
 74
           0
 49
-0.125
 74
           0
  0
LTYPE
  5
2B
100
AcDbSymbolTableRecord
100
AcDbLinetypeTableRecord
  2
PHANTOM
 70
           0
  3
PHANTOM
 72
          65
 73
           6
 40
2.5
 49
1.25
 74
           0
 49
-0.25
 74
           0
 49
0.25
 74
           0
 49
-0.25
 74
           0
 49
0.25
 74
           0
 49
-0.25
 74
           0
  0
LTYPE
  5
2C
100
AcDbSymbolTableRecord
100
AcDbLinetypeTableRecord
  2
$INVISIBLE
 70
           0
  3
$INVISIBLE
 72
          65
 73
           2
 40
200.0
 49
-100.0
 74
           0
 49
-100.0
 74
           0
  0
LTYPE
  5
2D
100
AcDbSymbolTableRecord
100
AcDbLinetypeTableRecord
  2
Continuous2
 70
           0
  3
Continuous2
 72
          65
 73
           0
 40
0.0
  0
LTYPE
  5
2E
100
AcDbSymbolTableRecord
100
AcDbLinetypeTableRecord
  2
$SNAPEXT
 70
           0
  3
$SNAPEXT
 72
          65
 73
           2
 40
0.04
 49
0.02
 74
           0
 49
-0.02
 74
           0
  0
LTYPE
  5
2F
100
AcDbSymbolTableRecord
100
AcDbLinetypeTableRecord
  2
$AUXILIARY
 70
           0
  3
$AUXILIARY
 72
          65
 73
           2
 40
0.1
 49
0.05
 74
           0
 49
-0.05
 74
           0
  0
ENDTAB
  0
TABLE
  2
LAYER
  5
2
100
AcDbSymbolTable
 70
           2
  0
LAYER
  5
14
100
AcDbSymbolTableRecord
100
AcDbLayerTableRecord
  2
0
 70
           0
 62
           7
  6
Continuous
290
           1
370
           0
390
0
1001
TCAD
1000
TCW_LAYER_ORDER
1002
{
1071
        0
1002
}
  0
LAYER
  5
30
100
AcDbSymbolTableRecord
100
AcDbLayerTableRecord
  2
CAD
 70
           0
 62
           7
  6
Continuous
290
           1
370
           0
390
0
1001
TCAD
1000
TCW_LAYER_ORDER
1002
{
1071
        0
1002
}
  0
ENDTAB
  0
TABLE
  2
STYLE
  5
3
100
AcDbSymbolTable
 70
           2
  0
STYLE
  5
17
100
AcDbSymbolTableRecord
100
AcDbTextStyleTableRecord
  2
STANDARD
 70
           0
 40
0.0
 41
1.0
 50
0.0
 71
           0
 42
0.20000000298
  3
TXT.SHX
  4

  0
STYLE
  5
32
100
AcDbSymbolTableRecord
100
AcDbTextStyleTableRecord
  2
Arial
 70
           0
 40
5.0
 41
1.0
 50
0.0
 71
           0
 42
5.0
  3
ARIAL.TTF
  4

1001
ACAD
1000
Arial
1071
      256
  0
ENDTAB
  0
TABLE
  2
VIEW
  5
5
100
AcDbSymbolTable
 70
           1
  0
VIEW
  5
31
100
AcDbSymbolTableRecord
100
AcDbViewTableRecord
  2
View_0
 70
           0
 40
8.267716535433
 10
5.846456692913
 20
4.133858267717
 41
11.692913385827
 11
0.0
 21
0.0
 31
1.0
 12
0.0
 22
0.0
 32
0.0
 42
45.247172312671
 43
0.0
 44
0.0
 50
0.0
 71
           0
281
           0
 72
           0
110
0.0
120
0.0
130
0.0
111
1.0
121
0.0
131
0.0
112
0.0
122
1.0
132
0.0
  0
ENDTAB
  0
TABLE
  2
UCS
  5
6
100
AcDbSymbolTable
 70
           0
  0
ENDTAB
  0
TABLE
  2
APPID
  5
8
100
AcDbSymbolTable
 70
           2
  0
APPID
  5
16
100
AcDbSymbolTableRecord
100
AcDbRegAppTableRecord
  2
ACAD
 70
           0
  0
APPID
  5
23
100
AcDbSymbolTableRecord
100
AcDbRegAppTableRecord
  2
TCAD
 70
           0
  0
ENDTAB
  0
TABLE
  2
DIMSTYLE
  5
9
100
AcDbSymbolTable
 70
           2
100
AcDbDimStyleTable
 71
           0
  0
DIMSTYLE
105
18
100
AcDbSymbolTableRecord
100
AcDbDimStyleTableRecord
  2
STANDARD
 70
           0
  3

  4

 40
1.0
 41
0.18
 42
0.0625
 43
0.38
 44
0.18
 45
0.0000001
 46
0.0
 47
0.0
 48
0.0
 71
           0
 72
           0
 73
           1
 74
           1
 75
           0
 76
           0
 77
           0
 78
           0
 79
           0
140
0.18
141
0.09
142
0.0
143
25.4
144
1.0
145
0.0
146
1.0
147
0.09
148
0.0000001
170
           0
171
           2
172
           0
173
           0
174
           0
175
           0
176
           0
177
           0
178
           0
179
           4
271
           4
272
           4
273
           2
274
           2
275
           0
276
           0
277
           2
278
          46
279
           0
280
           0
281
           0
282
           0
283
           1
284
           0
285
           0
286
           0
288
           0
340
17
341
0
342
0
343
0
344
0
371
          -2
372
          -2
  0
DIMSTYLE
105
33
100
AcDbSymbolTableRecord
100
AcDbDimStyleTableRecord
  2
OdaDimStyle
 70
           0
  3

  4

 40
1.0
 41
0.18
 42
0.0625
 43
0.38
 44
0.18
 45
0.0000001
 46
0.0
 47
0.0
 48
0.0
 71
           0
 72
           0
 73
           1
 74
           1
 75
           0
 76
           0
 77
           0
 78
           0
 79
           0
140
0.18
141
0.09
142
0.0
143
25.4
144
1.0
145
0.0
146
1.0
147
0.09
148
0.0000001
170
           0
171
           2
172
           0
173
           0
174
           0
175
           0
176
           0
177
           0
178
           0
179
           4
271
           4
272
           4
273
           2
274
           2
275
           0
276
           0
277
           2
278
          46
279
           0
280
           0
281
           0
282
           0
283
           1
284
           0
285
           0
286
           0
288
           0
340
17
341
0
342
0
343
0
344
0
371
          -2
372
          -2
  0
ENDTAB
  0
TABLE
  2
BLOCK_RECORD
  5
1
100
AcDbSymbolTable
 70
           1
  0
BLOCK_RECORD
  5
A
100
AcDbSymbolTableRecord
100
AcDbBlockTableRecord
  2
*MODEL_SPACE
340
45B
  0
BLOCK_RECORD
  5
B
100
AcDbSymbolTableRecord
100
AcDbBlockTableRecord
  2
*PAPER_SPACE
340
460
  0
BLOCK_RECORD
  5
45C
100
AcDbSymbolTableRecord
100
AcDbBlockTableRecord
  2
*PAPER_SPACE0
340
45F
  0
ENDTAB
  0
ENDSEC
  0
SECTION
  2
BLOCKS
  0
BLOCK
  5
D
100
AcDbEntity
  8
0
100
AcDbBlockBegin
  2
*MODEL_SPACE
 70
           0
 10
0.0
 20
0.0
 30
0.0
  3
*MODEL_SPACE
  1

  0
ENDBLK
  5
E
100
AcDbEntity
  8
0
100
AcDbBlockEnd
  0
BLOCK
  5
F
100
AcDbEntity
 67
           1
  8
0
100
AcDbBlockBegin
  2
*PAPER_SPACE
 70
           0
 10
0.0
 20
0.0
 30
0.0
  3
*PAPER_SPACE
  1

  0
ENDBLK
  5
10
100
AcDbEntity
 67
           1
  8
0
100
AcDbBlockEnd
  0
BLOCK
  5
45D
100
AcDbEntity
 67
           1
  8
0
100
AcDbBlockBegin
  2
*PAPER_SPACE0
 70
           0
 10
0.0
 20
0.0
 30
0.0
  3
*PAPER_SPACE0
  1

  0
ENDBLK
  5
45E
100
AcDbEntity
 67
           1
  8
0
100
AcDbBlockEnd
  0
ENDSEC
  0
SECTION
  2
ENTITIES
  0
LINE
  5
34
100
AcDbEntity
  8
CAD
  6
Continuous
 62
           5
100
AcDbLine
 10
-6.85
 20
-2.625
 30
0.0
 11
-2.35
 21
-2.625
 31
0.0
1001
ACAD
1000
TCW40_DEV_WIDTH
1002
{
1040
-3.0
1002
}
  0
ARC
  5
35
100
AcDbEntity
  8
CAD
  6
Continuous
 62
           5
100
AcDbCircle
 10
-2.35
 20
-2.375
 30
0.0
 40
0.25
100
AcDbArc
 50
-90.0
 51
0.0
1001
ACAD
1000
TCW40_DEV_WIDTH
1002
{
1040
-3.0
1002
}
  0
LINE
  5
36
100
AcDbEntity
  8
CAD
  6
Continuous
 62
           5
100
AcDbLine
 10
-2.1
 20
-2.375
 30
0.0
 11
-2.1
 21
2.375
 31
0.0
1001
ACAD
1000
TCW40_DEV_WIDTH
1002
{
1040
-3.0
1002
}
  0
ARC
  5
37
100
AcDbEntity
  8
CAD
  6
Continuous
 62
           5
100
AcDbCircle
 10
-2.35
 20
2.375
 30
0.0
 40
0.25
100
AcDbArc
 50
0.0
 51
90.0
1001
ACAD
1000
TCW40_DEV_WIDTH
1002
{
1040
-3.0
1002
}
  0
LINE
  5
38
100
AcDbEntity
  8
CAD
  6
Continuous
 62
           5
100
AcDbLine
 10
-2.35
 20
2.625
 30
0.0
 11
-6.85
 21
2.625
 31
0.0
1001
ACAD
1000
TCW40_DEV_WIDTH
1002
{
1040
-3.0
1002
}
  0
LINE
  5
39
100
AcDbEntity
  8
CAD
  6
Continuous
 62
           5
100
AcDbLine
 10
-2.1
 20
-1.375
 30
0.0
 11
-0.325
 21
-1.375
 31
0.0
1001
ACAD
1000
TCW40_DEV_WIDTH
1002
{
1040
-3.0
1002
}
  0
LINE
  5
3A
100
AcDbEntity
  8
CAD
  6
Continuous
 62
           5
100
AcDbLine
 10
-0.325
 20
-1.375
 30
0.0
 11
-0.325
 21
1.375
 31
0.0
1001
ACAD
1000
TCW40_DEV_WIDTH
1002
{
1040
-3.0
1002
}
  0
LINE
  5
3B
100
AcDbEntity
  8
CAD
  6
Continuous
 62
           5
100
AcDbLine
 10
-0.325
 20
1.375
 30
0.0
 11
-2.1
 21
1.375
 31
0.0
1001
ACAD
1000
TCW40_DEV_WIDTH
1002
{
1040
-3.0
1002
}
  0
LINE
  5
3C
100
AcDbEntity
  8
CAD
  6
Continuous
 62
           5
100
AcDbLine
 10
-3.3
 20
-2.625
 30
0.0
 11
-3.3
 21
2.625
 31
0.0
1001
ACAD
1000
TCW40_DEV_WIDTH
1002
{
1040
-3.0
1002
}
  0
LINE
  5
3D
100
AcDbEntity
  8
CAD
  6
Continuous
 62
           5
100
AcDbLine
 10
-0.325
 20
-0.96980977504
 30
0.0
 11
1.785218078078
 21
-0.746613632166
 31
0.0
1001
ACAD
1000
TCW40_DEV_WIDTH
1002
{
1040
-3.0
1002
}
  0
LINE
  5
3E
100
AcDbEntity
  8
CAD
  6
Continuous
 62
           5
100
AcDbLine
 10
-0.325
 20
0.96980977504
 30
0.0
 11
1.785218078078
 21
0.746613632166
 31
0.0
1001
ACAD
1000
TCW40_DEV_WIDTH
1002
{
1040
-3.0
1002
}
  0
LINE
  5
3F
100
AcDbEntity
  8
CAD
  6
Continuous
 62
           5
100
AcDbLine
 10
1.785218078078
 20
0.746613632166
 30
0.0
 11
1.785218078078
 21
-0.746613632166
 31
0.0
1001
ACAD
1000
TCW40_DEV_WIDTH
1002
{
1040
-3.0
1002
}
  0
LINE
  5
40
100
AcDbEntity
  8
CAD
  6
Continuous
 62
           5
100
AcDbLine
 10
-3.3
 20
2.362127870593
 30
0.0
 11
-2.1
 21
2.362127870593
 31
0.0
1001
ACAD
1000
TCW40_DEV_WIDTH
1002
{
1040
-3.0
1002
}
  0
LINE
  5
41
100
AcDbEntity
  8
CAD
  6
Continuous
 62
           5
100
AcDbLine
 10
-3.3
 20
1.927823259175
 30
0.0
 11
-2.1
 21
1.927823259175
 31
0.0
1001
ACAD
1000
TCW40_DEV_WIDTH
1002
{
1040
-3.0
1002
}
  0
LINE
  5
42
100
AcDbEntity
  8
CAD
  6
Continuous
 62
           5
100
AcDbLine
 10
-0.409028930018
 20
-3.229382667977
 30
0.0
 11
1.558717895394
 21
-3.229382667977
 31
0.0
1001
ACAD
1000
TCW40_DEV_WIDTH
1002
{
1040
-3.0
1002
}
  0
LINE
  5
43
100
AcDbEntity
  8
CAD
  6
Continuous
 62
           5
100
AcDbLine
 10
-0.409028930018
 20
-2.895078056559
 30
0.0
 11
1.558717895394
 21
-2.895078056559
 31
0.0
1001
ACAD
1000
TCW40_DEV_WIDTH
1002
{
1040
-3.0
1002
}
  0
LINE
  5
44
100
AcDbEntity
  8
CAD
  6
Continuous
 62
           5
100
AcDbLine
 10
-0.1
 20
-3.7
 30
0.0
 11
1.7
 21
-3.7
 31
0.0
1001
ACAD
1000
TCW40_DEV_WIDTH
1002
{
1040
-3.0
1002
}
  0
ARC
  5
45
100
AcDbEntity
  8
CAD
  6
Continuous
 62
           5
100
AcDbCircle
 10
1.7
 20
-3.6
 30
0.0
 40
0.1
100
AcDbArc
 50
-90.0
 51
0.0
1001
ACAD
1000
TCW40_DEV_WIDTH
1002
{
1040
-3.0
1002
}
  0
LINE
  5
46
100
AcDbEntity
  8
CAD
  6
Continuous
 62
           5
100
AcDbLine
 10
1.8
 20
-3.6
 30
0.0
 11
1.8
 21
3.6
 31
0.0
1001
ACAD
1000
TCW40_DEV_WIDTH
1002
{
1040
-3.0
1002
}
  0
ARC
  5
47
100
AcDbEntity
  8
CAD
  6
Continuous
 62
           5
100
AcDbCircle
 10
1.7
 20
3.6
 30
0.0
 40
0.1
100
AcDbArc
 50
0.0
 51
90.0
1001
ACAD
1000
TCW40_DEV_WIDTH
1002
{
1040
-3.0
1002
}
  0
LINE
  5
48
100
AcDbEntity
  8
CAD
  6
Continuous
 62
           5
100
AcDbLine
 10
1.7
 20
3.7
 30
0.0
 11
-0.1
 21
3.7
 31
0.0
1001
ACAD
1000
TCW40_DEV_WIDTH
1002
{
1040
-3.0
1002
}
  0
ARC
  5
49
100
AcDbEntity
  8
CAD
  6
Continuous
 62
           5
100
AcDbCircle
 10
-0.1
 20
3.6
 30
0.0
 40
0.1
100
AcDbArc
 50
90.0
 51
180.0
1001
ACAD
1000
TCW40_DEV_WIDTH
1002
{
1040
-3.0
1002
}
  0
LINE
  5
4A
100
AcDbEntity
  8
CAD
  6
Continuous
 62
           5
100
AcDbLine
 10
-0.2
 20
3.6
 30
0.0
 11
-0.2
 21
-3.6
 31
0.0
1001
ACAD
1000
TCW40_DEV_WIDTH
1002
{
1040
-3.0
1002
}
  0
ARC
  5
4B
100
AcDbEntity
  8
CAD
  6
Continuous
 62
           5
100
AcDbCircle
 10
-0.1
 20
-3.6
 30
0.0
 40
0.1
100
AcDbArc
 50
180.0
 51
270.0
1001
ACAD
1000
TCW40_DEV_WIDTH
1002
{
1040
-3.0
1002
}
  0
LINE
  5
4C
100
AcDbEntity
  8
CAD
  6
Continuous
 62
           5
100
AcDbLine
 10
2.1875
 20
-5.712722657946
 30
0.0
 11
2.1875
 21
5.690436330902
 31
0.0
1001
ACAD
1000
TCW40_DEV_WIDTH
1002
{
1040
-3.0
1002
}
  0
LINE
  5
4D
100
AcDbEntity
  8
CAD
  6
Continuous
 62
           5
100
AcDbLine
 10
1.8125
 20
5.690436330902
 30
0.0
 11
1.8125
 21
-5.712722657946
 31
0.0
1001
ACAD
1000
TCW40_DEV_WIDTH
1002
{
1040
-3.0
1002
}
  0
TEXT
  5
4E
100
AcDbEntity
  8
CAD
  6
Continuous
 62
           5
100
AcDbText
 10
0.511202431242
 20
2.448602812469
 30
0.0
 40
0.196850396693
  1
1.4
  7
Arial
 72
           1
 11
0.702898145661
 21
2.448602811558
 31
0.0
100
AcDbText
1001
TCAD
1000
TCW40_TEXT
1002
{
1000
Arial
1070
           0
1070
        1026
1002
}
  0
TEXT
  5
4F
100
AcDbEntity
  8
CAD
  6
Continuous
 62
           5
100
AcDbText
 10
0.194755096095
 20
1.961226007272
 30
0.0
 40
0.196850396693
  1
6.3
 50
90.000002504478
  7
Arial
 72
           1
 11
0.194755088626
 21
2.152921721691
 31
0.0
100
AcDbText
1001
TCAD
1000
TCW40_TEXT
1002
{
1000
Arial
1070
           0
1070
        1026
1002
}
  0
LINE
  5
50
100
AcDbEntity
  8
CAD
  6
Continuous
 62
           5
100
AcDbLine
 10
-13.789688301283
 20
2.821531032483
 30
0.0
 11
1.638951005322
 21
2.821531032483
 31
0.0
1001
ACAD
1000
TCW40_DEV_WIDTH
1002
{
1040
-3.0
1002
}
  0
LINE
  5
51
100
AcDbEntity
  8
CAD
  6
Continuous
 62
           5
100
AcDbLine
 10
-13.789688301283
 20
3.309615777905
 30
0.0
 11
1.638951005322
 21
3.309615777905
 31
0.0
1001
ACAD
1000
TCW40_DEV_WIDTH
1002
{
1040
-3.0
1002
}
  0
LINE
  5
52
100
AcDbEntity
  8
CAD
  6
Continuous
 62
           5
100
AcDbLine
 10
-0.126177413103
 20
3.309615777905
 30
0.0
 11
-0.126177413103
 21
2.821531032483
 31
0.0
1001
ACAD
1000
TCW40_DEV_WIDTH
1002
{
1040
-3.0
1002
}
  0
LINE
  5
53
100
AcDbEntity
  8
CAD
  6
Continuous
 62
           5
100
AcDbLine
 10
1.638951005322
 20
3.309615777905
 30
0.0
 11
1.638951005322
 21
2.821531032483
 31
0.0
1001
ACAD
1000
TCW40_DEV_WIDTH
1002
{
1040
-3.0
1002
}
  0
LINE
  5
54
100
AcDbEntity
  8
CAD
  6
Continuous
 62
           5
100
AcDbLine
 10
1.558717895394
 20
-2.895078056559
 30
0.0
 11
1.558717895394
 21
-3.229382667977
 31
0.0
1001
ACAD
1000
TCW40_DEV_WIDTH
1002
{
1040
-3.0
1002
}
  0
LINE
  5
55
100
AcDbEntity
  8
CAD
  6
Continuous
 62
           5
100
AcDbLine
 10
-2.051772051385
 20
4.0
 30
0.0
 11
-2.051772051385
 21
-4.0
 31
0.0
1001
ACAD
1000
TCW40_DEV_WIDTH
1002
{
1040
-3.0
1002
}
  0
LINE
  5
56
100
AcDbEntity
  8
CAD
  6
Continuous
 62
           5
100
AcDbLine
 10
-1.676772051385
 20
4.0
 30
0.0
 11
-1.676772051385
 21
-4.0
 31
0.0
1001
ACAD
1000
TCW40_DEV_WIDTH
1002
{
1040
-3.0
1002
}
  0
LINE
  5
57
100
AcDbEntity
  8
CAD
  6
Continuous
 62
           5
100
AcDbLine
 10
-1.652063313574
 20
-2.681946822108
 30
0.0
 11
-0.409028930018
 21
-2.681946822108
 31
0.0
1001
ACAD
1000
TCW40_DEV_WIDTH
1002
{
1040
-3.0
1002
}
  0
LINE
  5
58
100
AcDbEntity
  8
CAD
  6
Continuous
 62
           5
100
AcDbLine
 10
-1.676772051385
 20
-3.453156505716
 30
0.0
 11
-0.409028930018
 21
-3.453156505716
 31
0.0
1001
ACAD
1000
TCW40_DEV_WIDTH
1002
{
1040
-3.0
1002
}
  0
LINE
  5
59
100
AcDbEntity
  8
CAD
  6
Continuous
 62
           5
100
AcDbLine
 10
-0.409028930018
 20
-3.229382667977
 30
0.0
 11
-0.409028930018
 21
-3.453156505716
 31
0.0
1001
ACAD
1000
TCW40_DEV_WIDTH
1002
{
1040
-3.0
1002
}
  0
LINE
  5
5A
100
AcDbEntity
  8
CAD
  6
Continuous
 62
           5
100
AcDbLine
 10
-2.051772051385
 20
4.0
 30
0.0
 11
-1.676772051385
 21
4.0
 31
0.0
1001
ACAD
1000
TCW40_DEV_WIDTH
1002
{
1040
-3.0
1002
}
  0
LINE
  5
5B
100
AcDbEntity
  8
CAD
  6
Continuous
 62
           5
100
AcDbLine
 10
-2.051772051385
 20
-4.0
 30
0.0
 11
-1.676772051385
 21
-4.0
 31
0.0
1001
ACAD
1000
TCW40_DEV_WIDTH
1002
{
1040
-3.0
1002
}
  0
LINE
  5
5C
100
AcDbEntity
  8
CAD
  6
Continuous
 62
           5
100
AcDbLine
 10
-3.3
 20
-1.837872129407
 30
0.0
 11
-2.1
 21
-1.837872129407
 31
0.0
1001
ACAD
1000
TCW40_DEV_WIDTH
1002
{
1040
-3.0
1002
}
  0
LINE
  5
5D
100
AcDbEntity
  8
CAD
  6
Continuous
 62
           5
100
AcDbLine
 10
-3.3
 20
-2.272176740825
 30
0.0
 11
-2.1
 21
-2.272176740825
 31
0.0
1001
ACAD
1000
TCW40_DEV_WIDTH
1002
{
1040
-3.0
1002
}
  0
LINE
  5
5E
100
AcDbEntity
  8
CAD
  6
Continuous
 62
           5
100
AcDbLine
 10
-4.129341860762
 20
1.99516924537
 30
0.0
 11
-1.642115452981
 21
1.99516924537
 31
0.0
1001
ACAD
1000
TCW40_DEV_WIDTH
1002
{
1040
-3.0
1002
}
  0
LINE
  5
5F
100
AcDbEntity
  8
CAD
  6
Continuous
 62
           5
100
AcDbLine
 10
-1.642115452981
 20
1.99516924537
 30
0.0
 11
-1.642115452981
 21
2.316101685084
 31
0.0
1001
ACAD
1000
TCW40_DEV_WIDTH
1002
{
1040
-3.0
1002
}
  0
LINE
  5
60
100
AcDbEntity
  8
CAD
  6
Continuous
 62
           5
100
AcDbLine
 10
-1.642115452981
 20
2.316101685084
 30
0.0
 11
-4.129341860762
 21
2.316101685084
 31
0.0
1001
ACAD
1000
TCW40_DEV_WIDTH
1002
{
1040
-3.0
1002
}
  0
LINE
  5
61
100
AcDbEntity
  8
CAD
  6
Continuous
 62
           5
100
AcDbLine
 10
-4.129341860762
 20
2.316101685084
 30
0.0
 11
-4.129341860762
 21
1.99516924537
 31
0.0
1001
ACAD
1000
TCW40_DEV_WIDTH
1002
{
1040
-3.0
1002
}
  0
LINE
  5
62
100
AcDbEntity
  8
CAD
  6
Continuous
 62
           5
100
AcDbLine
 10
-4.148115828199
 20
-1.870493053364
 30
0.0
 11
-4.148115828199
 21
-2.191425493077
 31
0.0
1001
ACAD
1000
TCW40_DEV_WIDTH
1002
{
1040
-3.0
1002
}
  0
LINE
  5
63
100
AcDbEntity
  8
CAD
  6
Continuous
 62
           5
100
AcDbLine
 10
-1.660889420418
 20
-1.870493053364
 30
0.0
 11
-4.148115828199
 21
-1.870493053364
 31
0.0
1001
ACAD
1000
TCW40_DEV_WIDTH
1002
{
1040
-3.0
1002
}
  0
LINE
  5
64
100
AcDbEntity
  8
CAD
  6
Continuous
 62
           5
100
AcDbLine
 10
-1.660889420418
 20
-2.191425493077
 30
0.0
 11
-1.660889420418
 21
-1.870493053364
 31
0.0
1001
ACAD
1000
TCW40_DEV_WIDTH
1002
{
1040
-3.0
1002
}
  0
LINE
  5
65
100
AcDbEntity
  8
CAD
  6
Continuous
 62
           5
100
AcDbLine
 10
-4.148115828199
 20
-2.191425493077
 30
0.0
 11
-1.660889420418
 21
-2.191425493077
 31
0.0
1001
ACAD
1000
TCW40_DEV_WIDTH
1002
{
1040
-3.0
1002
}
  0
LINE
  5
66
100
AcDbEntity
  8
CAD
  6
Continuous
 62
           5
100
AcDbLine
 10
-3.665735802149
 20
1.699564594453
 30
0.0
 11
-3.344803362435
 21
1.699564594453
 31
0.0
1001
ACAD
1000
TCW40_DEV_WIDTH
1002
{
1040
-3.0
1002
}
  0
LINE
  5
67
100
AcDbEntity
  8
CAD
  6
Continuous
 62
           5
100
AcDbLine
 10
-3.344803362435
 20
1.699564594453
 30
0.0
 11
-3.344803362435
 21
2.55538443369
 31
0.0
1001
ACAD
1000
TCW40_DEV_WIDTH
1002
{
1040
-3.0
1002
}
  0
LINE
  5
68
100
AcDbEntity
  8
CAD
  6
Continuous
 62
           5
100
AcDbLine
 10
-3.344803362435
 20
2.55538443369
 30
0.0
 11
-3.665735802149
 21
2.55538443369
 31
0.0
1001
ACAD
1000
TCW40_DEV_WIDTH
1002
{
1040
-3.0
1002
}
  0
LINE
  5
69
100
AcDbEntity
  8
CAD
  6
Continuous
 62
           5
100
AcDbLine
 10
-3.665735802149
 20
2.55538443369
 30
0.0
 11
-3.665735802149
 21
1.699564594453
 31
0.0
1001
ACAD
1000
TCW40_DEV_WIDTH
1002
{
1040
-3.0
1002
}
  0
LINE
  5
6A
100
AcDbEntity
  8
CAD
  6
Continuous
 62
           5
100
AcDbLine
 10
-1.638147318954
 20
1.687608990645
 30
0.0
 11
-1.317214879241
 21
1.687608990645
 31
0.0
1001
ACAD
1000
TCW40_DEV_WIDTH
1002
{
1040
-3.0
1002
}
  0
LINE
  5
6B
100
AcDbEntity
  8
CAD
  6
Continuous
 62
           5
100
AcDbLine
 10
-1.317214879241
 20
1.687608990645
 30
0.0
 11
-1.317214879241
 21
2.62366193981
 31
0.0
1001
ACAD
1000
TCW40_DEV_WIDTH
1002
{
1040
-3.0
1002
}
  0
LINE
  5
6C
100
AcDbEntity
  8
CAD
  6
Continuous
 62
           5
100
AcDbLine
 10
-1.317214879241
 20
2.62366193981
 30
0.0
 11
-1.638147318954
 21
2.62366193981
 31
0.0
1001
ACAD
1000
TCW40_DEV_WIDTH
1002
{
1040
-3.0
1002
}
  0
LINE
  5
6D
100
AcDbEntity
  8
CAD
  6
Continuous
 62
           5
100
AcDbLine
 10
-1.638147318954
 20
2.62366193981
 30
0.0
 11
-1.638147318954
 21
1.687608990645
 31
0.0
1001
ACAD
1000
TCW40_DEV_WIDTH
1002
{
1040
-3.0
1002
}
  0
LINE
  5
6E
100
AcDbEntity
  8
CAD
  6
Continuous
 62
           5
100
AcDbLine
 10
-1.326601862959
 20
-2.498985747803
 30
0.0
 11
-1.326601862959
 21
-1.562932798638
 31
0.0
1001
ACAD
1000
TCW40_DEV_WIDTH
1002
{
1040
-3.0
1002
}
  0
LINE
  5
6F
100
AcDbEntity
  8
CAD
  6
Continuous
 62
           5
100
AcDbLine
 10
-1.326601862959
 20
-1.562932798638
 30
0.0
 11
-1.647534302673
 21
-1.562932798638
 31
0.0
1001
ACAD
1000
TCW40_DEV_WIDTH
1002
{
1040
-3.0
1002
}
  0
LINE
  5
70
100
AcDbEntity
  8
CAD
  6
Continuous
 62
           5
100
AcDbLine
 10
-1.647534302673
 20
-1.562932798638
 30
0.0
 11
-1.647534302673
 21
-2.498985747803
 31
0.0
1001
ACAD
1000
TCW40_DEV_WIDTH
1002
{
1040
-3.0
1002
}
  0
LINE
  5
71
100
AcDbEntity
  8
CAD
  6
Continuous
 62
           5
100
AcDbLine
 10
-1.647534302673
 20
-2.498985747803
 30
0.0
 11
-1.326601862959
 21
-2.498985747803
 31
0.0
1001
ACAD
1000
TCW40_DEV_WIDTH
1002
{
1040
-3.0
1002
}
  0
LINE
  5
72
100
AcDbEntity
  8
CAD
  6
Continuous
 62
           5
100
AcDbLine
 10
-3.335416378716
 20
-2.508372731521
 30
0.0
 11
-3.335416378716
 21
-1.572319782356
 31
0.0
1001
ACAD
1000
TCW40_DEV_WIDTH
1002
{
1040
-3.0
1002
}
  0
LINE
  5
73
100
AcDbEntity
  8
CAD
  6
Continuous
 62
           5
100
AcDbLine
 10
-3.335416378716
 20
-1.572319782356
 30
0.0
 11
-3.65634881843
 21
-1.572319782356
 31
0.0
1001
ACAD
1000
TCW40_DEV_WIDTH
1002
{
1040
-3.0
1002
}
  0
LINE
  5
74
100
AcDbEntity
  8
CAD
  6
Continuous
 62
           5
100
AcDbLine
 10
-3.65634881843
 20
-1.572319782356
 30
0.0
 11
-3.65634881843
 21
-2.508372731521
 31
0.0
1001
ACAD
1000
TCW40_DEV_WIDTH
1002
{
1040
-3.0
1002
}
  0
LINE
  5
75
100
AcDbEntity
  8
CAD
  6
Continuous
 62
           5
100
AcDbLine
 10
-3.65634881843
 20
-2.508372731521
 30
0.0
 11
-3.335416378716
 21
-2.508372731521
 31
0.0
1001
ACAD
1000
TCW40_DEV_WIDTH
1002
{
1040
-3.0
1002
}
  0
LINE
  5
76
100
AcDbEntity
  8
CAD
  6
Continuous
 62
           5
100
AcDbLine
 10
-10.103865689063
 20
3.618955471755
 30
0.0
 11
-2.075836299189
 21
3.618955471755
 31
0.0
1001
ACAD
1000
TCW40_DEV_WIDTH
1002
{
1040
-3.0
1002
}
  0
LINE
  5
77
100
AcDbEntity
  8
CAD
  6
Continuous
 62
           5
100
AcDbLine
 10
-2.075836299189
 20
3.618955471755
 30
0.0
 11
-2.075836299189
 21
3.993955471755
 31
0.0
1001
ACAD
1000
TCW40_DEV_WIDTH
1002
{
1040
-3.0
1002
}
  0
LINE
  5
78
100
AcDbEntity
  8
CAD
  6
Continuous
 62
           5
100
AcDbLine
 10
-2.075836299189
 20
3.993955471755
 30
0.0
 11
-10.075836299189
 21
3.993955471755
 31
0.0
1001
ACAD
1000
TCW40_DEV_WIDTH
1002
{
1040
-3.0
1002
}
  0
LINE
  5
79
100
AcDbEntity
  8
CAD
  6
Continuous
 62
           5
100
AcDbLine
 10
-14.075836299189
 20
3.993955471755
 30
0.0
 11
-14.075836299189
 21
3.618955471755
 31
0.0
1001
ACAD
1000
TCW40_DEV_WIDTH
1002
{
1040
-3.0
1002
}
  0
LINE
  5
7A
100
AcDbEntity
  8
CAD
  6
Continuous
 62
           5
100
AcDbLine
 10
-14.103865689063
 20
-7.005038574083
 30
0.0
 11
-14.103865689063
 21
3.58222035276
 31
0.0
1001
ACAD
1000
TCW40_DEV_WIDTH
1002
{
1040
-3.0
1002
}
  0
LINE
  5
7B
100
AcDbEntity
  8
CAD
  6
Continuous
 62
           5
100
AcDbLine
 10
-2.103865689063
 20
-4.005038574083
 30
0.0
 11
-2.103865689063
 21
3.58222035276
 31
0.0
1001
ACAD
1000
TCW40_DEV_WIDTH
1002
{
1040
-3.0
1002
}
  0
LINE
  5
7C
100
AcDbEntity
  8
CAD
  6
Continuous
 62
           5
100
AcDbLine
 10
-4.603865689063
 20
-4.005038574083
 30
0.0
 11
-2.103865689063
 21
-4.005038574083
 31
0.0
1001
ACAD
1000
TCW40_DEV_WIDTH
1002
{
1040
-3.0
1002
}
  0
LINE
  5
7D
100
AcDbEntity
  8
CAD
  6
Continuous
 62
           5
100
AcDbLine
 10
-2.103865689063
 20
3.58222035276
 30
0.0
 11
-14.103865689063
 21
3.58222035276
 31
0.0
1001
ACAD
1000
TCW40_DEV_WIDTH
1002
{
1040
-3.0
1002
}
  0
LINE
  5
7E
100
AcDbEntity
  8
CAD
  6
Continuous
 62
           5
100
AcDbLine
 10
-2.35
 20
-4.658420270315
 30
0.0
 11
-2.35
 21
-2.625
 31
0.0
1001
ACAD
1000
TCW40_DEV_WIDTH
1002
{
1040
-3.0
1002
}
  0
LINE
  5
7F
100
AcDbEntity
  8
CAD
  6
Continuous
 62
           5
100
AcDbLine
 10
-2.35
 20
-2.625
 30
0.0
 11
-3.104720972502
 21
-2.625
 31
0.0
1001
ACAD
1000
TCW40_DEV_WIDTH
1002
{
1040
-3.0
1002
}
  0
LINE
  5
80
100
AcDbEntity
  8
CAD
  6
Continuous
 62
           5
100
AcDbLine
 10
-3.104720972502
 20
-2.625
 30
0.0
 11
-3.104720972502
 21
-3.677391624711
 31
0.0
1001
ACAD
1000
TCW40_DEV_WIDTH
1002
{
1040
-3.0
1002
}
  0
LINE
  5
81
100
AcDbEntity
  8
CAD
  6
Continuous
 62
           5
100
AcDbLine
 10
-4.141808397855
 20
-4.658420270315
 30
0.0
 11
-2.35
 21
-4.658420270315
 31
0.0
1001
ACAD
1000
TCW40_DEV_WIDTH
1002
{
1040
-3.0
1002
}
  0
LINE
  5
82
100
AcDbEntity
  8
CAD
  6
Continuous
 62
           5
100
AcDbLine
 10
-2.35
 20
-4.658420270315
 30
0.0
 11
-2.35
 21
-3.677391624711
 31
0.0
1001
ACAD
1000
TCW40_DEV_WIDTH
1002
{
1040
-3.0
1002
}
  0
LINE
  5
83
100
AcDbEntity
  8
CAD
  6
Continuous
 62
           5
100
AcDbLine
 10
-3.104720972502
 20
-3.677391624711
 30
0.0
 11
-4.141808397855
 21
-3.677391624711
 31
0.0
1001
ACAD
1000
TCW40_DEV_WIDTH
1002
{
1040
-3.0
1002
}
  0
LINE
  5
84
100
AcDbEntity
  8
CAD
  6
Continuous
 62
           5
100
AcDbLine
 10
-4.141808397855
 20
-3.677391624711
 30
0.0
 11
-4.141808397855
 21
-4.658420270315
 31
0.0
1001
ACAD
1000
TCW40_DEV_WIDTH
1002
{
1040
-3.0
1002
}
  0
POLYLINE
  5
85
100
AcDbEntity
  8
CAD
  6
Continuous
 62
           5
100
AcDb2dPolyline
 66
           1
 10
0.0
 20
0.0
 30
0.0
 70
         132
210
0.0
220
0.0
230
-0.9999999999999998
 75
           6
1001
ACAD
1000
TCW40_DEV_WIDTH
1002
{
1040
-3.0
1002
}
  0
VERTEX
  5
86
100
AcDbEntity
  8
CAD
  6
Continuous
 62
           5
100
AcDbVertex
100
AcDb2dVertex
 10
11.435831253787
 20
-8.351308951484
 30
0.0
 70
          16
  0
VERTEX
  5
87
100
AcDbEntity
  8
CAD
  6
Continuous
 62
           5
100
AcDbVertex
100
AcDb2dVertex
 10
11.411977133775
 20
-7.718734564606
 30
0.0
 70
          16
  0
VERTEX
  5
88
100
AcDbEntity
  8
CAD
  6
Continuous
 62
           5
100
AcDbVertex
100
AcDb2dVertex
 10
11.25930934825
 20
-6.837486804296
 30
0.0
 70
          16
  0
VERTEX
  5
89
100
AcDbEntity
  8
CAD
  6
Continuous
 62
           5
100
AcDbVertex
100
AcDb2dVertex
 10
11.648921348303
 20
-4.839401845299
 30
0.0
 70
          16
  0
VERTEX
  5
8A
100
AcDbEntity
  8
CAD
  6
Continuous
 62
           5
100
AcDbVertex
100
AcDb2dVertex
 10
9.979175322234
 20
-4.334694123888
 30
0.0
 70
          16
  0
VERTEX
  5
8B
100
AcDbEntity
  8
CAD
  6
Continuous
 62
           5
100
AcDbVertex
100
AcDb2dVertex
 10
8.841352794821
 20
-4.54441173284
 30
0.0
 70
          16
  0
VERTEX
  5
8C
100
AcDbEntity
  8
CAD
  6
Continuous
 62
           5
100
AcDbVertex
100
AcDb2dVertex
 10
7.221692158997
 20
-4.546915155221
 30
0.0
 70
          16
  0
VERTEX
  5
8D
100
AcDbEntity
  8
CAD
  6
Continuous
 62
           5
100
AcDbVertex
100
AcDb2dVertex
 10
7.120786355449
 20
-4.548783781213
 30
0.0
 70
          16
  0
VERTEX
  5
8E
100
AcDbEntity
  8
CAD
  6
Continuous
 62
           5
100
AcDbVertex
100
AcDb2dVertex
 10
11.435831253787
 20
-8.351308951484
 30
0.0
 70
           8
  0
VERTEX
  5
8F
100
AcDbEntity
  8
CAD
  6
Continuous
 62
           5
100
AcDbVertex
100
AcDb2dVertex
 10
11.425170813563
 20
-8.125461938765
 30
0.0
 70
           8
  0
VERTEX
  5
90
100
AcDbEntity
  8
CAD
  6
Continuous
 62
           5
100
AcDbVertex
100
AcDb2dVertex
 10
11.411973876079
 20
-7.919795839689
 30
0.0
 70
           8
  0
VERTEX
  5
91
100
AcDbEntity
  8
CAD
  6
Continuous
 62
           5
100
AcDbVertex
100
AcDb2dVertex
 10
11.397581131104
 20
-7.730476877641
 30
0.0
 70
           8
  0
VERTEX
  5
92
100
AcDbEntity
  8
CAD
  6
Continuous
 62
           5
100
AcDbVertex
100
AcDb2dVertex
 10
11.383333268409
 20
-7.553671276006
 30
0.0
 70
           8
  0
VERTEX
  5
93
100
AcDbEntity
  8
CAD
  6
Continuous
 62
           5
100
AcDbVertex
100
AcDb2dVertex
 10
11.370570977762
 20
-7.38554525817
 30
0.0
 70
           8
  0
VERTEX
  5
94
100
AcDbEntity
  8
CAD
  6
Continuous
 62
           5
100
AcDbVertex
100
AcDb2dVertex
 10
11.360634948934
 20
-7.222265047517
 30
0.0
 70
           8
  0
VERTEX
  5
95
100
AcDbEntity
  8
CAD
  6
Continuous
 62
           5
100
AcDbVertex
100
AcDb2dVertex
 10
11.354865871694
 20
-7.059996867433
 30
0.0
 70
           8
  0
VERTEX
  5
96
100
AcDbEntity
  8
CAD
  6
Continuous
 62
           5
100
AcDbVertex
100
AcDb2dVertex
 10
11.354604435811
 20
-6.894906941302
 30
0.0
 70
           8
  0
VERTEX
  5
97
100
AcDbEntity
  8
CAD
  6
Continuous
 62
           5
100
AcDbVertex
100
AcDb2dVertex
 10
11.36376662574
 20
-6.664701877286
 30
0.0
 70
           8
  0
VERTEX
  5
98
100
AcDbEntity
  8
CAD
  6
Continuous
 62
           5
100
AcDbVertex
100
AcDb2dVertex
 10
11.379614257395
 20
-6.427300435457
 30
0.0
 70
           8
  0
VERTEX
  5
99
100
AcDbEntity
  8
CAD
  6
Continuous
 62
           5
100
AcDbVertex
100
AcDb2dVertex
 10
11.396514916325
 20
-6.187477296268
 30
0.0
 70
           8
  0
VERTEX
  5
9A
100
AcDbEntity
  8
CAD
  6
Continuous
 62
           5
100
AcDbVertex
100
AcDb2dVertex
 10
11.408836188076
 20
-5.950007140171
 30
0.0
 70
           8
  0
VERTEX
  5
9B
100
AcDbEntity
  8
CAD
  6
Continuous
 62
           5
100
AcDbVertex
100
AcDb2dVertex
 10
11.410945658194
 20
-5.719664647619
 30
0.0
 70
           8
  0
VERTEX
  5
9C
100
AcDbEntity
  8
CAD
  6
Continuous
 62
           5
100
AcDbVertex
100
AcDb2dVertex
 10
11.397210912226
 20
-5.501224499064
 30
0.0
 70
           8
  0
VERTEX
  5
9D
100
AcDbEntity
  8
CAD
  6
Continuous
 62
           5
100
AcDbVertex
100
AcDb2dVertex
 10
11.36199953572
 20
-5.29946137496
 30
0.0
 70
           8
  0
VERTEX
  5
9E
100
AcDbEntity
  8
CAD
  6
Continuous
 62
           5
100
AcDbVertex
100
AcDb2dVertex
 10
11.299679114222
 20
-5.119149955759
 30
0.0
 70
           8
  0
VERTEX
  5
9F
100
AcDbEntity
  8
CAD
  6
Continuous
 62
           5
100
AcDbVertex
100
AcDb2dVertex
 10
11.20641123494
 20
-4.963955319139
 30
0.0
 70
           8
  0
VERTEX
  5
A0
100
AcDbEntity
  8
CAD
  6
Continuous
 62
           5
100
AcDbVertex
100
AcDb2dVertex
 10
11.085533491727
 20
-4.833104131678
 30
0.0
 70
           8
  0
VERTEX
  5
A1
100
AcDbEntity
  8
CAD
  6
Continuous
 62
           5
100
AcDbVertex
100
AcDb2dVertex
 10
10.942177480097
 20
-4.72471345718
 30
0.0
 70
           8
  0
VERTEX
  5
A2
100
AcDbEntity
  8
CAD
  6
Continuous
 62
           5
100
AcDbVertex
100
AcDb2dVertex
 10
10.781474795564
 20
-4.63690035945
 30
0.0
 70
           8
  0
VERTEX
  5
A3
100
AcDbEntity
  8
CAD
  6
Continuous
 62
           5
100
AcDbVertex
100
AcDb2dVertex
 10
10.608557033641
 20
-4.567781902292
 30
0.0
 70
           8
  0
VERTEX
  5
A4
100
AcDbEntity
  8
CAD
  6
Continuous
 62
           5
100
AcDbVertex
100
AcDb2dVertex
 10
10.428555789843
 20
-4.515475149508
 30
0.0
 70
           8
  0
VERTEX
  5
A5
100
AcDbEntity
  8
CAD
  6
Continuous
 62
           5
100
AcDbVertex
100
AcDb2dVertex
 10
10.246602659684
 20
-4.478097164904
 30
0.0
 70
           8
  0
VERTEX
  5
A6
100
AcDbEntity
  8
CAD
  6
Continuous
 62
           5
100
AcDbVertex
100
AcDb2dVertex
 10
10.067829238677
 20
-4.453765012282
 30
0.0
 70
           8
  0
VERTEX
  5
A7
100
AcDbEntity
  8
CAD
  6
Continuous
 62
           5
100
AcDbVertex
100
AcDb2dVertex
 10
9.895918239254
 20
-4.440609972741
 30
0.0
 70
           8
  0
VERTEX
  5
A8
100
AcDbEntity
  8
CAD
  6
Continuous
 62
           5
100
AcDbVertex
100
AcDb2dVertex
 10
9.72875684152
 20
-4.436820196555
 30
0.0
 70
           8
  0
VERTEX
  5
A9
100
AcDbEntity
  8
CAD
  6
Continuous
 62
           5
100
AcDbVertex
100
AcDb2dVertex
 10
9.562783342495
 20
-4.440598051288
 30
0.0
 70
           8
  0
VERTEX
  5
AA
100
AcDbEntity
  8
CAD
  6
Continuous
 62
           5
100
AcDbVertex
100
AcDb2dVertex
 10
9.394436039201
 20
-4.45014590451
 30
0.0
 70
           8
  0
VERTEX
  5
AB
100
AcDbEntity
  8
CAD
  6
Continuous
 62
           5
100
AcDbVertex
100
AcDb2dVertex
 10
9.22015322866
 20
-4.463666123786
 30
0.0
 70
           8
  0
VERTEX
  5
AC
100
AcDbEntity
  8
CAD
  6
Continuous
 62
           5
100
AcDbVertex
100
AcDb2dVertex
 10
9.036373207893
 20
-4.479361076683
 30
0.0
 70
           8
  0
VERTEX
  5
AD
100
AcDbEntity
  8
CAD
  6
Continuous
 62
           5
100
AcDbVertex
100
AcDb2dVertex
 10
8.839534273921
 20
-4.495433130769
 30
0.0
 70
           8
  0
VERTEX
  5
AE
100
AcDbEntity
  8
CAD
  6
Continuous
 62
           5
100
AcDbVertex
100
AcDb2dVertex
 10
8.626074723767
 20
-4.51008465361
 30
0.0
 70
           8
  0
VERTEX
  5
AF
100
AcDbEntity
  8
CAD
  6
Continuous
 62
           5
100
AcDbVertex
100
AcDb2dVertex
 10
8.394831554789
 20
-4.521885868167
 30
0.0
 70
           8
  0
VERTEX
  5
B0
100
AcDbEntity
  8
CAD
  6
Continuous
 62
           5
100
AcDbVertex
100
AcDb2dVertex
 10
8.154236565698
 20
-4.530878418977
 30
0.0
 70
           8
  0
VERTEX
  5
B1
100
AcDbEntity
  8
CAD
  6
Continuous
 62
           5
100
AcDbVertex
100
AcDb2dVertex
 10
7.915120255541
 20
-4.537471805968
 30
0.0
 70
           8
  0
VERTEX
  5
B2
100
AcDbEntity
  8
CAD
  6
Continuous
 62
           5
100
AcDbVertex
100
AcDb2dVertex
 10
7.688313123367
 20
-4.542075529073
 30
0.0
 70
           8
  0
VERTEX
  5
B3
100
AcDbEntity
  8
CAD
  6
Continuous
 62
           5
100
AcDbVertex
100
AcDb2dVertex
 10
7.484645668222
 20
-4.545099088219
 30
0.0
 70
           8
  0
VERTEX
  5
B4
100
AcDbEntity
  8
CAD
  6
Continuous
 62
           5
100
AcDbVertex
100
AcDb2dVertex
 10
7.314948389156
 20
-4.546951983338
 30
0.0
 70
           8
  0
VERTEX
  5
B5
100
AcDbEntity
  8
CAD
  6
Continuous
 62
           5
100
AcDbVertex
100
AcDb2dVertex
 10
7.190051785216
 20
-4.548043714359
 30
0.0
 70
           8
  0
VERTEX
  5
B6
100
AcDbEntity
  8
CAD
  6
Continuous
 62
           5
100
AcDbVertex
100
AcDb2dVertex
 10
7.120786355449
 20
-4.548783781213
 30
0.0
 70
           8
  0
SEQEND
  5
B7
100
AcDbEntity
  8
CAD
  6
Continuous
 62
           5
  0
POLYLINE
  5
B8
100
AcDbEntity
  8
CAD
  6
Continuous
 62
           5
100
AcDb2dPolyline
 66
           1
 10
0.0
 20
0.0
 30
0.0
 70
         132
210
0.0
220
0.0
230
-0.9999999999999998
 75
           6
1001
ACAD
1000
TCW40_DEV_WIDTH
1002
{
1040
-3.0
1002
}
  0
VERTEX
  5
B9
100
AcDbEntity
  8
CAD
  6
Continuous
 62
           5
100
AcDbVertex
100
AcDb2dVertex
 10
12.182372297463
 20
-8.351308951484
 30
0.0
 70
          16
  0
VERTEX
  5
BA
100
AcDbEntity
  8
CAD
  6
Continuous
 62
           5
100
AcDbVertex
100
AcDb2dVertex
 10
12.263710232705
 20
-6.988950398197
 30
0.0
 70
          16
  0
VERTEX
  5
BB
100
AcDbEntity
  8
CAD
  6
Continuous
 62
           5
100
AcDbVertex
100
AcDb2dVertex
 10
12.27041974674
 20
-5.138641105558
 30
0.0
 70
          16
  0
VERTEX
  5
BC
100
AcDbEntity
  8
CAD
  6
Continuous
 62
           5
100
AcDbVertex
100
AcDb2dVertex
 10
12.000613724641
 20
-4.205403638465
 30
0.0
 70
          16
  0
VERTEX
  5
BD
100
AcDbEntity
  8
CAD
  6
Continuous
 62
           5
100
AcDbVertex
100
AcDb2dVertex
 10
10.435393584812
 20
-3.618851774566
 30
0.0
 70
          16
  0
VERTEX
  5
BE
100
AcDbEntity
  8
CAD
  6
Continuous
 62
           5
100
AcDbVertex
100
AcDb2dVertex
 10
9.247778948
 20
-3.764550957148
 30
0.0
 70
          16
  0
VERTEX
  5
BF
100
AcDbEntity
  8
CAD
  6
Continuous
 62
           5
100
AcDbVertex
100
AcDb2dVertex
 10
7.628118312176
 20
-3.767054379529
 30
0.0
 70
          16
  0
VERTEX
  5
C0
100
AcDbEntity
  8
CAD
  6
Continuous
 62
           5
100
AcDbVertex
100
AcDb2dVertex
 10
7.527212508628
 20
-3.768923005521
 30
0.0
 70
          16
  0
VERTEX
  5
C1
100
AcDbEntity
  8
CAD
  6
Continuous
 62
           5
100
AcDbVertex
100
AcDb2dVertex
 10
12.182372297463
 20
-8.351308951484
 30
0.0
 70
           8
  0
VERTEX
  5
C2
100
AcDbEntity
  8
CAD
  6
Continuous
 62
           5
100
AcDbVertex
100
AcDb2dVertex
 10
12.209284375354
 20
-7.864811356208
 30
0.0
 70
           8
  0
VERTEX
  5
C3
100
AcDbEntity
  8
CAD
  6
Continuous
 62
           5
100
AcDbVertex
100
AcDb2dVertex
 10
12.229344821943
 20
-7.424896673998
 30
0.0
 70
           8
  0
VERTEX
  5
C4
100
AcDbEntity
  8
CAD
  6
Continuous
 62
           5
100
AcDbVertex
100
AcDb2dVertex
 10
12.243045133755
 20
-7.028278687836
 30
0.0
 70
           8
  0
VERTEX
  5
C5
100
AcDbEntity
  8
CAD
  6
Continuous
 62
           5
100
AcDbVertex
100
AcDb2dVertex
 10
12.250876807313
 20
-6.671671180704
 30
0.0
 70
           8
  0
VERTEX
  5
C6
100
AcDbEntity
  8
CAD
  6
Continuous
 62
           5
100
AcDbVertex
100
AcDb2dVertex
 10
12.253331339143
 20
-6.351787935583
 30
0.0
 70
           8
  0
VERTEX
  5
C7
100
AcDbEntity
  8
CAD
  6
Continuous
 62
           5
100
AcDbVertex
100
AcDb2dVertex
 10
12.250900225767
 20
-6.065342735454
 30
0.0
 70
           8
  0
VERTEX
  5
C8
100
AcDbEntity
  8
CAD
  6
Continuous
 62
           5
100
AcDbVertex
100
AcDb2dVertex
 10
12.244074963709
 20
-5.809049363299
 30
0.0
 70
           8
  0
VERTEX
  5
C9
100
AcDbEntity
  8
CAD
  6
Continuous
 62
           5
100
AcDbVertex
100
AcDb2dVertex
 10
12.233347049495
 20
-5.5796216021
 30
0.0
 70
           8
  0
VERTEX
  5
CA
100
AcDbEntity
  8
CAD
  6
Continuous
 62
           5
100
AcDbVertex
100
AcDb2dVertex
 10
12.215094817291
 20
-5.330175587766
 30
0.0
 70
           8
  0
VERTEX
  5
CB
100
AcDbEntity
  8
CAD
  6
Continuous
 62
           5
100
AcDbVertex
100
AcDb2dVertex
 10
12.189845137287
 20
-5.112647685793
 30
0.0
 70
           8
  0
VERTEX
  5
CC
100
AcDbEntity
  8
CAD
  6
Continuous
 62
           5
100
AcDbVertex
100
AcDb2dVertex
 10
12.155745850841
 20
-4.923389528142
 30
0.0
 70
           8
  0
VERTEX
  5
CD
100
AcDbEntity
  8
CAD
  6
Continuous
 62
           5
100
AcDbVertex
100
AcDb2dVertex
 10
12.110944799313
 20
-4.75875274677
 30
0.0
 70
           8
  0
VERTEX
  5
CE
100
AcDbEntity
  8
CAD
  6
Continuous
 62
           5
100
AcDbVertex
100
AcDb2dVertex
 10
12.05358982406
 20
-4.615088973637
 30
0.0
 70
           8
  0
VERTEX
  5
CF
100
AcDbEntity
  8
CAD
  6
Continuous
 62
           5
100
AcDbVertex
100
AcDb2dVertex
 10
11.981828766441
 20
-4.488749840702
 30
0.0
 70
           8
  0
VERTEX
  5
D0
100
AcDbEntity
  8
CAD
  6
Continuous
 62
           5
100
AcDbVertex
100
AcDb2dVertex
 10
11.893809467814
 20
-4.376086979923
 30
0.0
 70
           8
  0
VERTEX
  5
D1
100
AcDbEntity
  8
CAD
  6
Continuous
 62
           5
100
AcDbVertex
100
AcDb2dVertex
 10
11.787679769538
 20
-4.27345202326
 30
0.0
 70
           8
  0
VERTEX
  5
D2
100
AcDbEntity
  8
CAD
  6
Continuous
 62
           5
100
AcDbVertex
100
AcDb2dVertex
 10
11.662435011166
 20
-4.177910119981
 30
0.0
 70
           8
  0
VERTEX
  5
D3
100
AcDbEntity
  8
CAD
  6
Continuous
 62
           5
100
AcDbVertex
100
AcDb2dVertex
 10
11.520460525039
 20
-4.089380488593
 30
0.0
 70
           8
  0
VERTEX
  5
D4
100
AcDbEntity
  8
CAD
  6
Continuous
 62
           5
100
AcDbVertex
100
AcDb2dVertex
 10
11.364989141689
 20
-4.00849586491
 30
0.0
 70
           8
  0
VERTEX
  5
D5
100
AcDbEntity
  8
CAD
  6
Continuous
 62
           5
100
AcDbVertex
100
AcDb2dVertex
 10
11.199253691651
 20
-3.93588898475
 30
0.0
 70
           8
  0
VERTEX
  5
D6
100
AcDbEntity
  8
CAD
  6
Continuous
 62
           5
100
AcDbVertex
100
AcDb2dVertex
 10
11.026487005461
 20
-3.872192583928
 30
0.0
 70
           8
  0
VERTEX
  5
D7
100
AcDbEntity
  8
CAD
  6
Continuous
 62
           5
100
AcDbVertex
100
AcDb2dVertex
 10
10.849921913652
 20
-3.818039398259
 30
0.0
 70
           8
  0
VERTEX
  5
D8
100
AcDbEntity
  8
CAD
  6
Continuous
 62
           5
100
AcDbVertex
100
AcDb2dVertex
 10
10.672791246758
 20
-3.77406216356
 30
0.0
 70
           8
  0
VERTEX
  5
D9
100
AcDbEntity
  8
CAD
  6
Continuous
 62
           5
100
AcDbVertex
100
AcDb2dVertex
 10
10.498327835315
 20
-3.740893615646
 30
0.0
 70
           8
  0
VERTEX
  5
DA
100
AcDbEntity
  8
CAD
  6
Continuous
 62
           5
100
AcDbVertex
100
AcDb2dVertex
 10
10.328698529696
 20
-3.718776465649
 30
0.0
 70
           8
  0
VERTEX
  5
DB
100
AcDbEntity
  8
CAD
  6
Continuous
 62
           5
100
AcDbVertex
100
AcDb2dVertex
 10
10.161806259631
 20
-3.706393325957
 30
0.0
 70
           8
  0
VERTEX
  5
DC
100
AcDbEntity
  8
CAD
  6
Continuous
 62
           5
100
AcDbVertex
100
AcDb2dVertex
 10
9.994487974692
 20
-3.702036784274
 30
0.0
 70
           8
  0
VERTEX
  5
DD
100
AcDbEntity
  8
CAD
  6
Continuous
 62
           5
100
AcDbVertex
100
AcDb2dVertex
 10
9.82358062445
 20
-3.703999428305
 30
0.0
 70
           8
  0
VERTEX
  5
DE
100
AcDbEntity
  8
CAD
  6
Continuous
 62
           5
100
AcDbVertex
100
AcDb2dVertex
 10
9.645921158473
 20
-3.710573845753
 30
0.0
 70
           8
  0
VERTEX
  5
DF
100
AcDbEntity
  8
CAD
  6
Continuous
 62
           5
100
AcDbVertex
100
AcDb2dVertex
 10
9.458346526333
 20
-3.720052624324
 30
0.0
 70
           8
  0
VERTEX
  5
E0
100
AcDbEntity
  8
CAD
  6
Continuous
 62
           5
100
AcDbVertex
100
AcDb2dVertex
 10
9.257693677601
 20
-3.73072835172
 30
0.0
 70
           8
  0
VERTEX
  5
E1
100
AcDbEntity
  8
CAD
  6
Continuous
 62
           5
100
AcDbVertex
100
AcDb2dVertex
 10
9.040799561846
 20
-3.740893615646
 30
0.0
 70
           8
  0
VERTEX
  5
E2
100
AcDbEntity
  8
CAD
  6
Continuous
 62
           5
100
AcDbVertex
100
AcDb2dVertex
 10
8.806817178516
 20
-3.74917298318
 30
0.0
 70
           8
  0
VERTEX
  5
E3
100
AcDbEntity
  8
CAD
  6
Continuous
 62
           5
100
AcDbVertex
100
AcDb2dVertex
 10
8.564163726569
 20
-3.755518938889
 30
0.0
 70
           8
  0
VERTEX
  5
E4
100
AcDbEntity
  8
CAD
  6
Continuous
 62
           5
100
AcDbVertex
100
AcDb2dVertex
 10
8.323572454838
 20
-3.760215946714
 30
0.0
 70
           8
  0
VERTEX
  5
E5
100
AcDbEntity
  8
CAD
  6
Continuous
 62
           5
100
AcDbVertex
100
AcDb2dVertex
 10
8.095776612158
 20
-3.763548470596
 30
0.0
 70
           8
  0
VERTEX
  5
E6
100
AcDbEntity
  8
CAD
  6
Continuous
 62
           5
100
AcDbVertex
100
AcDb2dVertex
 10
7.891509447363
 20
-3.765800974477
 30
0.0
 70
           8
  0
VERTEX
  5
E7
100
AcDbEntity
  8
CAD
  6
Continuous
 62
           5
100
AcDbVertex
100
AcDb2dVertex
 10
7.721504209286
 20
-3.767257922298
 30
0.0
 70
           8
  0
VERTEX
  5
E8
100
AcDbEntity
  8
CAD
  6
Continuous
 62
           5
100
AcDbVertex
100
AcDb2dVertex
 10
7.596494146763
 20
-3.768203777998
 30
0.0
 70
           8
  0
VERTEX
  5
E9
100
AcDbEntity
  8
CAD
  6
Continuous
 62
           5
100
AcDbVertex
100
AcDb2dVertex
 10
7.527212508628
 20
-3.768923005521
 30
0.0
 70
           8
  0
SEQEND
  5
EA
100
AcDbEntity
  8
CAD
  6
Continuous
 62
           5
  0
LINE
  5
EB
100
AcDbEntity
  8
CAD
  6
Continuous
 62
           5
100
AcDbLine
 10
-4.541227203565
 20
-3.791990254604
 30
0.0
 11
-4.148815745323
 21
-3.735931474855
 31
0.0
1001
ACAD
1000
TCW40_DEV_WIDTH
1002
{
1040
-3.0
1002
}
  0
TEXT
  5
EC
100
AcDbEntity
  8
CAD
  6
Continuous
 62
           5
100
AcDbText
 10
-11.451451081364
 20
-4.230832076476
 30
0.0
 40
0.196850396693
  1
Hydraulic Hose
  7
Arial
 72
           1
 11
-10.516471562423
 21
-4.230832077387
 31
0.0
100
AcDbText
1001
TCAD
1000
TCW40_TEXT
1002
{
1000
Arial
1070
           0
1070
        1026
1002
}
  0
TEXT
  5
ED
100
AcDbEntity
  8
CAD
  6
Continuous
 62
           5
100
AcDbText
 10
-13.29078053686
 20
-2.956477487209
 30
0.0
 40
0.196850396693
  1
3/8" Plate
  7
Arial
 72
           1
 11
-12.697513610359
 21
-2.95647748812
 31
0.0
100
AcDbText
1001
TCAD
1000
TCW40_TEXT
1002
{
1000
Arial
1070
           0
1070
        1026
1002
}
  0
TEXT
  5
EE
100
AcDbEntity
  8
CAD
  6
Continuous
 62
           5
100
AcDbText
 10
-6.613044840232
 20
3.722367174954
 30
0.0
 40
0.196850396693
  1
3/8" Plate
  7
Arial
 72
           1
 11
-6.019777913732
 21
3.722367174043
 31
0.0
100
AcDbText
1001
TCAD
1000
TCW40_TEXT
1002
{
1000
Arial
1070
           0
1070
        1026
1002
}
  0
TEXT
  5
EF
100
AcDbEntity
  8
CAD
  6
Continuous
 62
           5
100
AcDbText
 10
-1.787339733663
 20
-0.206397037894
 30
0.0
 40
0.196850396693
  1
3/8" Plate
 50
90.000002504478
  7
Arial
 72
           1
 11
-1.787339758685
 21
0.386869888606
 31
0.0
100
AcDbText
1001
TCAD
1000
TCW40_TEXT
1002
{
1000
Arial
1070
           0
1070
        1026
1002
}
  0
TEXT
  5
F0
100
AcDbEntity
  8
CAD
  6
Continuous
 62
           5
100
AcDbText
 10
0.1016771691
 20
2.965573889975
 30
0.0
 40
0.196850396693
  1
Brake Cam
  7
Arial
 72
           1
 11
0.791364279319
 21
2.965573889064
 31
0.0
100
AcDbText
1001
TCAD
1000
TCW40_TEXT
1002
{
1000
Arial
1070
           0
1070
        1026
1002
}
  0
TEXT
  5
F1
100
AcDbEntity
  8
CAD
  6
Continuous
 62
           5
100
AcDbText
 10
-1.650169572872
 20
-3.148838853301
 30
0.0
 40
0.196850396693
  1
Brake Pivot
  7
Arial
 72
           1
 11
-0.945063313161
 21
-3.148838854212
 31
0.0
100
AcDbText
1001
TCAD
1000
TCW40_TEXT
1002
{
1000
Arial
1070
           0
1070
        1026
1002
}
  0
TEXT
  5
F2
100
AcDbEntity
  8
CAD
  6
Continuous
 62
           5
100
AcDbText
 10
-1.538012233959
 20
3.096134156665
 30
0.0
 40
0.196850396693
  1
Bushing
  7
Arial
 72
           1
 11
-1.039684175506
 21
3.096134155754
 31
0.0
100
AcDbText
1001
TCAD
1000
TCW40_TEXT
1002
{
1000
Arial
1070
           0
1070
        1026
1002
}
  0
LINE
  5
F3
100
AcDbEntity
  8
CAD
  6
Continuous
 62
           5
100
AcDbLine
 10
-13.640049793489
 20
3.436234745364
 30
0.0
 11
-12.275864133593
 21
3.436234745364
 31
0.0
1001
ACAD
1000
TCW40_DEV_WIDTH
1002
{
1040
-3.0
1002
}
  0
LINE
  5
F4
100
AcDbEntity
  8
CAD
  6
Continuous
 62
           5
100
AcDbLine
 10
-13.640049793489
 20
2.665025061756
 30
0.0
 11
-12.275864133593
 21
2.665025061756
 31
0.0
1001
ACAD
1000
TCW40_DEV_WIDTH
1002
{
1040
-3.0
1002
}
  0
LINE
  5
F5
100
AcDbEntity
  8
CAD
  6
Continuous
 62
           5
100
AcDbLine
 10
-12.275864133593
 20
2.665025061756
 30
0.0
 11
-12.275864133593
 21
3.436234745364
 31
0.0
1001
ACAD
1000
TCW40_DEV_WIDTH
1002
{
1040
-3.0
1002
}
  0
TEXT
  5
F6
100
AcDbEntity
  8
CAD
  6
Continuous
 62
           5
100
AcDbText
 10
-6.521698954482
 20
1.115634048051
 30
0.0
 40
0.196850396693
  1
Hydraulic Hub Motor
  7
Arial
 72
           1
 11
-5.262984628752
 21
1.11563404714
 31
0.0
100
AcDbText
1001
TCAD
1000
TCW40_TEXT
1002
{
1000
Arial
1070
           0
1070
        1026
1002
}
  0
TEXT
  5
F7
100
AcDbEntity
  8
CAD
  6
Continuous
 62
           5
100
AcDbText
 10
0.055756383278
 20
1.367898626562
 30
0.0
 40
0.196850396693
  1
Break Drum
  7
Arial
 72
           1
 11
0.791364279319
 21
1.367898625652
 31
0.0
100
AcDbText
1001
TCAD
1000
TCW40_TEXT
1002
{
1000
Arial
1070
           0
1070
        1026
1002
}
  0
LINE
  5
F8
100
AcDbEntity
  8
CAD
  6
Continuous
 62
           5
100
AcDbLine
 10
-0.409028930018
 20
-2.681946822108
 30
0.0
 11
-0.409028930018
 21
-2.895078056559
 31
0.0
1001
ACAD
1000
TCW40_DEV_WIDTH
1002
{
1040
-3.0
1002
}
  0
TEXT
  5
F9
100
AcDbEntity
  8
CAD
  6
Continuous
 62
           5
100
AcDbText
 10
-11.042866727408
 20
3.016297348813
 30
0.0
 40
0.196850396693
  1
Brake Shaft
  7
Arial
 72
           1
 11
-10.322341318206
 21
3.016297347902
 31
0.0
100
AcDbText
1001
TCAD
1000
TCW40_TEXT
1002
{
1000
Arial
1070
           0
1070
        1026
1002
}
  0
TEXT
  5
FA
100
AcDbEntity
  8
CAD
  6
Continuous
 62
           5
100
AcDbText
 10
2.107473383417
 20
-5.528747179465
 30
0.0
 40
0.196850396693
  1
3/8" Plate
 50
90.000002504478
  7
Arial
 72
           1
 11
2.107473358395
 21
-4.935480252964
 31
0.0
100
AcDbText
1001
TCAD
1000
TCW40_TEXT
1002
{
1000
Arial
1070
           0
1070
        1026
1002
}
  0
LINE
  5
FB
100
AcDbEntity
  8
CAD
  6
Continuous
 62
           5
100
AcDbLine
 10
1.853147352274
 20
2.600460267489
 30
0.0
 11
2.753147352274
 21
2.600460267489
 31
0.0
1001
ACAD
1000
TCW40_DEV_WIDTH
1002
{
1040
-3.0
1002
}
  0
ARC
  5
FC
100
AcDbEntity
  8
CAD
  6
Continuous
 62
           5
100
AcDbCircle
 10
2.753147352274
 20
2.700460267489
 30
0.0
 40
0.1
100
AcDbArc
 50
-90.0
 51
0.0
1001
ACAD
1000
TCW40_DEV_WIDTH
1002
{
1040
-3.0
1002
}
  0
LINE
  5
FD
100
AcDbEntity
  8
CAD
  6
Continuous
 62
           5
100
AcDbLine
 10
2.853147352274
 20
2.700460267489
 30
0.0
 11
2.853147352274
 21
3.000460267489
 31
0.0
1001
ACAD
1000
TCW40_DEV_WIDTH
1002
{
1040
-3.0
1002
}
  0
ARC
  5
FE
100
AcDbEntity
  8
CAD
  6
Continuous
 62
           5
100
AcDbCircle
 10
2.753147352274
 20
3.000460267489
 30
0.0
 40
0.1
100
AcDbArc
 50
0.0
 51
90.0
1001
ACAD
1000
TCW40_DEV_WIDTH
1002
{
1040
-3.0
1002
}
  0
LINE
  5
FF
100
AcDbEntity
  8
CAD
  6
Continuous
 62
           5
100
AcDbLine
 10
2.753147352274
 20
3.100460267489
 30
0.0
 11
1.853147352274
 21
3.100460267489
 31
0.0
1001
ACAD
1000
TCW40_DEV_WIDTH
1002
{
1040
-3.0
1002
}
  0
LINE
  5
100
100
AcDbEntity
  8
CAD
  6
Continuous
 62
           5
100
AcDbLine
 10
1.826112837016
 20
1.208182731714
 30
0.0
 11
2.726112837016
 21
1.208182731714
 31
0.0
1001
ACAD
1000
TCW40_DEV_WIDTH
1002
{
1040
-3.0
1002
}
  0
ARC
  5
101
100
AcDbEntity
  8
CAD
  6
Continuous
 62
           5
100
AcDbCircle
 10
2.726112837016
 20
1.308182731714
 30
0.0
 40
0.1
100
AcDbArc
 50
-90.0
 51
0.0
1001
ACAD
1000
TCW40_DEV_WIDTH
1002
{
1040
-3.0
1002
}
  0
LINE
  5
102
100
AcDbEntity
  8
CAD
  6
Continuous
 62
           5
100
AcDbLine
 10
2.826112837016
 20
1.308182731714
 30
0.0
 11
2.826112837016
 21
1.608182731714
 31
0.0
1001
ACAD
1000
TCW40_DEV_WIDTH
1002
{
1040
-3.0
1002
}
  0
ARC
  5
103
100
AcDbEntity
  8
CAD
  6
Continuous
 62
           5
100
AcDbCircle
 10
2.726112837016
 20
1.608182731714
 30
0.0
 40
0.1
100
AcDbArc
 50
0.0
 51
90.0
1001
ACAD
1000
TCW40_DEV_WIDTH
1002
{
1040
-3.0
1002
}
  0
LINE
  5
104
100
AcDbEntity
  8
CAD
  6
Continuous
 62
           5
100
AcDbLine
 10
2.726112837016
 20
1.708182731714
 30
0.0
 11
1.826112837016
 21
1.708182731714
 31
0.0
1001
ACAD
1000
TCW40_DEV_WIDTH
1002
{
1040
-3.0
1002
}
  0
LINE
  5
105
100
AcDbEntity
  8
CAD
  6
Continuous
 62
           5
100
AcDbLine
 10
1.839630094645
 20
-1.062716549938
 30
0.0
 11
2.739630094645
 21
-1.062716549938
 31
0.0
1001
ACAD
1000
TCW40_DEV_WIDTH
1002
{
1040
-3.0
1002
}
  0
ARC
  5
106
100
AcDbEntity
  8
CAD
  6
Continuous
 62
           5
100
AcDbCircle
 10
2.739630094645
 20
-0.962716549938
 30
0.0
 40
0.1
100
AcDbArc
 50
-90.0
 51
0.0
1001
ACAD
1000
TCW40_DEV_WIDTH
1002
{
1040
-3.0
1002
}
  0
LINE
  5
107
100
AcDbEntity
  8
CAD
  6
Continuous
 62
           5
100
AcDbLine
 10
2.839630094645
 20
-0.962716549938
 30
0.0
 11
2.839630094645
 21
-0.662716549938
 31
0.0
1001
ACAD
1000
TCW40_DEV_WIDTH
1002
{
1040
-3.0
1002
}
  0
ARC
  5
108
100
AcDbEntity
  8
CAD
  6
Continuous
 62
           5
100
AcDbCircle
 10
2.739630094645
 20
-0.662716549938
 30
0.0
 40
0.1
100
AcDbArc
 50
0.0
 51
90.0
1001
ACAD
1000
TCW40_DEV_WIDTH
1002
{
1040
-3.0
1002
}
  0
LINE
  5
109
100
AcDbEntity
  8
CAD
  6
Continuous
 62
           5
100
AcDbLine
 10
2.739630094645
 20
-0.562716549938
 30
0.0
 11
1.839630094645
 21
-0.562716549938
 31
0.0
1001
ACAD
1000
TCW40_DEV_WIDTH
1002
{
1040
-3.0
1002
}
  0
LINE
  5
10A
100
AcDbEntity
  8
CAD
  6
Continuous
 62
           5
100
AcDbLine
 10
1.826112837016
 20
-3.009201648498
 30
0.0
 11
2.726112837016
 21
-3.009201648498
 31
0.0
1001
ACAD
1000
TCW40_DEV_WIDTH
1002
{
1040
-3.0
1002
}
  0
ARC
  5
10B
100
AcDbEntity
  8
CAD
  6
Continuous
 62
           5
100
AcDbCircle
 10
2.726112837016
 20
-2.909201648498
 30
0.0
 40
0.1
100
AcDbArc
 50
-90.0
 51
0.0
1001
ACAD
1000
TCW40_DEV_WIDTH
1002
{
1040
-3.0
1002
}
  0
LINE
  5
10C
100
AcDbEntity
  8
CAD
  6
Continuous
 62
           5
100
AcDbLine
 10
2.826112837016
 20
-2.909201648498
 30
0.0
 11
2.826112837016
 21
-2.609201648498
 31
0.0
1001
ACAD
1000
TCW40_DEV_WIDTH
1002
{
1040
-3.0
1002
}
  0
ARC
  5
10D
100
AcDbEntity
  8
CAD
  6
Continuous
 62
           5
100
AcDbCircle
 10
2.726112837016
 20
-2.609201648498
 30
0.0
 40
0.1
100
AcDbArc
 50
0.0
 51
90.0
1001
ACAD
1000
TCW40_DEV_WIDTH
1002
{
1040
-3.0
1002
}
  0
LINE
  5
10E
100
AcDbEntity
  8
CAD
  6
Continuous
 62
           5
100
AcDbLine
 10
2.726112837016
 20
-2.509201648498
 30
0.0
 11
1.826112837016
 21
-2.509201648498
 31
0.0
1001
ACAD
1000
TCW40_DEV_WIDTH
1002
{
1040
-3.0
1002
}
  0
TEXT
  5
10F
100
AcDbEntity
  8
CAD
  6
Continuous
 62
           5
100
AcDbText
 10
2.208162494139
 20
-2.856255778206
 30
0.0
 40
0.196850396693
  1
Stud
  7
Arial
 72
           1
 11
2.491834445263
 21
-2.856255779116
 31
0.0
100
AcDbText
1001
TCAD
1000
TCW40_TEXT
1002
{
1000
Arial
1070
           0
1070
        1026
1002
}
  0
LINE
  5
110
100
AcDbEntity
  8
CAD
  6
Continuous
 62
           5
100
AcDbLine
 10
-8.8125
 20
-6.0
 30
0.0
 11
7.0
 21
-6.0
 31
0.0
1001
ACAD
1000
TCW40_DEV_WIDTH
1002
{
1040
-3.0
1002
}
  0
LINE
  5
111
100
AcDbEntity
  8
CAD
  6
Continuous
 62
           5
100
AcDbLine
 10
7.0
 20
-6.0
 30
0.0
 11
7.0
 21
6.0
 31
0.0
1001
ACAD
1000
TCW40_DEV_WIDTH
1002
{
1040
-3.0
1002
}
  0
LINE
  5
112
100
AcDbEntity
  8
CAD
  6
Continuous
 62
           5
100
AcDbLine
 10
7.0
 20
6.0
 30
0.0
 11
-8.8125
 21
6.0
 31
0.0
1001
ACAD
1000
TCW40_DEV_WIDTH
1002
{
1040
-3.0
1002
}
  0
LINE
  5
113
100
AcDbEntity
  8
CAD
  6
Continuous
 62
           5
100
AcDbLine
 10
-8.8125
 20
-5.75
 30
0.0
 11
7.0
 21
-5.75
 31
0.0
1001
ACAD
1000
TCW40_DEV_WIDTH
1002
{
1040
-3.0
1002
}
  0
LINE
  5
114
100
AcDbEntity
  8
CAD
  6
Continuous
 62
           5
100
AcDbLine
 10
7.0
 20
-5.75
 30
0.0
 11
7.0
 21
5.75
 31
0.0
1001
ACAD
1000
TCW40_DEV_WIDTH
1002
{
1040
-3.0
1002
}
  0
LINE
  5
115
100
AcDbEntity
  8
CAD
  6
Continuous
 62
           5
100
AcDbLine
 10
7.0
 20
5.75
 30
0.0
 11
-8.8125
 21
5.75
 31
0.0
1001
ACAD
1000
TCW40_DEV_WIDTH
1002
{
1040
-3.0
1002
}
  0
LINE
  5
116
100
AcDbEntity
  8
CAD
  6
Continuous
 62
           5
100
AcDbLine
 10
1.8125
 20
5.690436330902
 30
0.0
 11
2.1875
 21
5.690436330902
 31
0.0
1001
ACAD
1000
TCW40_DEV_WIDTH
1002
{
1040
-3.0
1002
}
  0
LINE
  5
117
100
AcDbEntity
  8
CAD
  6
Continuous
 62
           5
100
AcDbLine
 10
1.8125
 20
-5.712722657946
 30
0.0
 11
2.1875
 21
-5.712722657946
 31
0.0
1001
ACAD
1000
TCW40_DEV_WIDTH
1002
{
1040
-3.0
1002
}
  0
TEXT
  5
118
100
AcDbEntity
  8
CAD
  6
Continuous
 62
           5
100
AcDbText
 10
-3.236353043945
 20
5.508776087432
 30
0.0
 40
0.196850396693
  1
12 in diameter x 14" long pipe
  7
Arial
 72
           1
 11
-1.416556741309
 21
5.508776086522
 31
0.0
100
AcDbText
1001
TCAD
1000
TCW40_TEXT
1002
{
1000
Arial
1070
           0
1070
        1026
1002
}
  0
LINE
  5
119
100
AcDbEntity
  8
CAD
  6
Continuous
 62
           5
100
AcDbLine
 10
6.714323116914
 20
-8.016333773023
 30
0.0
 11
6.889323116914
 21
-8.016333773023
 31
0.0
1001
ACAD
1000
TCW40_DEV_WIDTH
1002
{
1040
-3.0
1002
}
  0
ARC
  5
11A
100
AcDbEntity
  8
CAD
  6
Continuous
 62
           5
100
AcDbCircle
 10
6.889323116914
 20
-7.916333773023
 30
0.0
 40
0.1
100
AcDbArc
 50
-90.0
 51
0.0
1001
ACAD
1000
TCW40_DEV_WIDTH
1002
{
1040
-3.0
1002
}
  0
LINE
  5
11B
100
AcDbEntity
  8
CAD
  6
Continuous
 62
           5
100
AcDbLine
 10
6.989323116914
 20
-7.916333773023
 30
0.0
 11
6.989323116914
 21
-6.0
 31
0.0
1001
ACAD
1000
TCW40_DEV_WIDTH
1002
{
1040
-3.0
1002
}
  0
ARC
  5
11C
100
AcDbEntity
  8
CAD
  6
Continuous
 62
           5
100
AcDbCircle
 10
6.889323116914
 20
7.883666226977
 30
0.0
 40
0.1
100
AcDbArc
 50
0.0
 51
90.0
1001
ACAD
1000
TCW40_DEV_WIDTH
1002
{
1040
-3.0
1002
}
  0
LINE
  5
11D
100
AcDbEntity
  8
CAD
  6
Continuous
 62
           5
100
AcDbLine
 10
6.889323116914
 20
7.983666226977
 30
0.0
 11
6.714323116914
 21
7.983666226977
 31
0.0
1001
ACAD
1000
TCW40_DEV_WIDTH
1002
{
1040
-3.0
1002
}
  0
ARC
  5
11E
100
AcDbEntity
  8
CAD
  6
Continuous
 62
           5
100
AcDbCircle
 10
6.714323116914
 20
7.883666226977
 30
0.0
 40
0.1
100
AcDbArc
 50
90.0
 51
180.0
1001
ACAD
1000
TCW40_DEV_WIDTH
1002
{
1040
-3.0
1002
}
  0
LINE
  5
11F
100
AcDbEntity
  8
CAD
  6
Continuous
 62
           5
100
AcDbLine
 10
6.614323116914
 20
7.883666226977
 30
0.0
 11
6.614323116914
 21
6.0
 31
0.0
1001
ACAD
1000
TCW40_DEV_WIDTH
1002
{
1040
-3.0
1002
}
  0
ARC
  5
120
100
AcDbEntity
  8
CAD
  6
Continuous
 62
           5
100
AcDbCircle
 10
6.714323116914
 20
-7.916333773023
 30
0.0
 40
0.1
100
AcDbArc
 50
180.0
 51
270.0
1001
ACAD
1000
TCW40_DEV_WIDTH
1002
{
1040
-3.0
1002
}
  0
ARC
  5
121
100
AcDbEntity
  8
CAD
  6
Continuous
 62
           5
100
AcDbCircle
 10
-6.896719551821
 20
7.953739698879
 30
0.0
 40
0.1
100
AcDbArc
 50
90.0
 51
180.0
1001
ACAD
1000
TCW40_DEV_WIDTH
1002
{
1040
-3.0
1002
}
  0
LINE
  5
122
100
AcDbEntity
  8
CAD
  6
Continuous
 62
           5
100
AcDbLine
 10
-6.846719551821
 20
8.053739698879
 30
0.0
 11
-6.896719551821
 21
8.053739698879
 31
0.0
1001
ACAD
1000
TCW40_DEV_WIDTH
1002
{
1040
-3.0
1002
}
  0
ARC
  5
123
100
AcDbEntity
  8
CAD
  6
Continuous
 62
           5
100
AcDbCircle
 10
-6.846719551821
 20
7.953739698879
 30
0.0
 40
0.1
100
AcDbArc
 50
0.0
 51
90.0
1001
ACAD
1000
TCW40_DEV_WIDTH
1002
{
1040
-3.0
1002
}
  0
LINE
  5
124
100
AcDbEntity
  8
CAD
  6
Continuous
 62
           5
100
AcDbLine
 10
-6.746719551821
 20
6.0
 30
0.0
 11
-6.746719551821
 21
7.953739698879
 31
0.0
1001
ACAD
1000
TCW40_DEV_WIDTH
1002
{
1040
-3.0
1002
}
  0
ARC
  5
125
100
AcDbEntity
  8
CAD
  6
Continuous
 62
           5
100
AcDbCircle
 10
-6.846719551821
 20
-7.846260301121
 30
0.0
 40
0.1
100
AcDbArc
 50
-90.0
 51
0.0
1001
ACAD
1000
TCW40_DEV_WIDTH
1002
{
1040
-3.0
1002
}
  0
LINE
  5
126
100
AcDbEntity
  8
CAD
  6
Continuous
 62
           5
100
AcDbLine
 10
-6.896719551821
 20
-7.946260301121
 30
0.0
 11
-6.846719551821
 21
-7.946260301121
 31
0.0
1001
ACAD
1000
TCW40_DEV_WIDTH
1002
{
1040
-3.0
1002
}
  0
ARC
  5
127
100
AcDbEntity
  8
CAD
  6
Continuous
 62
           5
100
AcDbCircle
 10
-6.896719551821
 20
-7.846260301121
 30
0.0
 40
0.1
100
AcDbArc
 50
180.0
 51
270.0
1001
ACAD
1000
TCW40_DEV_WIDTH
1002
{
1040
-3.0
1002
}
  0
LINE
  5
128
100
AcDbEntity
  8
CAD
  6
Continuous
 62
           5
100
AcDbLine
 10
-6.996719551821
 20
7.953739698879
 30
0.0
 11
-6.996719551821
 21
6.0
 31
0.0
1001
ACAD
1000
TCW40_DEV_WIDTH
1002
{
1040
-3.0
1002
}
  0
LINE
  5
129
100
AcDbEntity
  8
CAD
  6
Continuous
 62
           5
100
AcDbLine
 10
-9.603865689063
 20
-7.805038574083
 30
0.0
 11
-9.603865689063
 21
-5.005038574083
 31
0.0
1001
ACAD
1000
TCW40_DEV_WIDTH
1002
{
1040
-3.0
1002
}
  0
LINE
  5
12A
100
AcDbEntity
  8
CAD
  6
Continuous
 62
           5
100
AcDbLine
 10
-17.103865689063
 20
-10.005038574083
 30
0.0
 11
-7.603865689063
 21
-10.005038574083
 31
0.0
1001
ACAD
1000
TCW40_DEV_WIDTH
1002
{
1040
-3.0
1002
}
  0
ARC
  5
12B
100
AcDbEntity
  8
CAD
  6
Continuous
 62
           5
100
AcDbCircle
 10
-8.603865689063
 20
-5.005038574083
 30
0.0
 40
1.0
100
AcDbArc
 50
90.0
 51
180.0
1001
ACAD
1000
TCW40_DEV_WIDTH
1002
{
1040
-3.0
1002
}
  0
LINE
  5
12C
100
AcDbEntity
  8
CAD
  6
Continuous
 62
           5
100
AcDbLine
 10
-7.527212508628
 20
-3.768923005521
 30
0.0
 11
-4.541227203565
 21
-3.791990254604
 31
0.0
1001
ACAD
1000
TCW40_DEV_WIDTH
1002
{
1040
-3.0
1002
}
  0
POLYLINE
  5
12D
100
AcDbEntity
  8
CAD
  6
Continuous
 62
           5
100
AcDb2dPolyline
 66
           1
 10
0.0
 20
0.0
 30
0.0
 70
         132
210
0.0
220
0.0
230
-0.9999999999999998
 75
           6
1001
ACAD
1000
TCW40_DEV_WIDTH
1002
{
1040
-3.0
1002
}
  0
VERTEX
  5
12E
100
AcDbEntity
  8
CAD
  6
Continuous
 62
           5
100
AcDbVertex
100
AcDb2dVertex
 10
7.120786355449
 20
-4.548783781213
 30
0.0
 70
          16
  0
VERTEX
  5
12F
100
AcDbEntity
  8
CAD
  6
Continuous
 62
           5
100
AcDbVertex
100
AcDb2dVertex
 10
6.674918276063
 20
-4.54876788123
 30
0.0
 70
          16
  0
VERTEX
  5
130
100
AcDbEntity
  8
CAD
  6
Continuous
 62
           5
100
AcDbVertex
100
AcDb2dVertex
 10
3.457478297864
 20
-4.502927010946
 30
0.0
 70
          16
  0
VERTEX
  5
131
100
AcDbEntity
  8
CAD
  6
Continuous
 62
           5
100
AcDbVertex
100
AcDb2dVertex
 10
4.192436644734
 20
-4.640131622149
 30
0.0
 70
          16
  0
VERTEX
  5
132
100
AcDbEntity
  8
CAD
  6
Continuous
 62
           5
100
AcDbVertex
100
AcDb2dVertex
 10
4.141808397855
 20
-4.658420270315
 30
0.0
 70
          16
  0
VERTEX
  5
133
100
AcDbEntity
  8
CAD
  6
Continuous
 62
           5
100
AcDbVertex
100
AcDb2dVertex
 10
7.120786355449
 20
-4.548783781213
 30
0.0
 70
           8
  0
VERTEX
  5
134
100
AcDbEntity
  8
CAD
  6
Continuous
 62
           5
100
AcDbVertex
100
AcDb2dVertex
 10
6.903278219542
 20
-4.547838281731
 30
0.0
 70
           8
  0
VERTEX
  5
135
100
AcDbEntity
  8
CAD
  6
Continuous
 62
           5
100
AcDbVertex
100
AcDb2dVertex
 10
6.601959179885
 20
-4.545550160658
 30
0.0
 70
           8
  0
VERTEX
  5
136
100
AcDbEntity
  8
CAD
  6
Continuous
 62
           5
100
AcDbVertex
100
AcDb2dVertex
 10
6.242035699261
 20
-4.542724096574
 30
0.0
 70
           8
  0
VERTEX
  5
137
100
AcDbEntity
  8
CAD
  6
Continuous
 62
           5
100
AcDbVertex
100
AcDb2dVertex
 10
5.848714240457
 20
-4.540164768061
 30
0.0
 70
           8
  0
VERTEX
  5
138
100
AcDbEntity
  8
CAD
  6
Continuous
 62
           5
100
AcDbVertex
100
AcDb2dVertex
 10
5.447201266257
 20
-4.538676853698
 30
0.0
 70
           8
  0
VERTEX
  5
139
100
AcDbEntity
  8
CAD
  6
Continuous
 62
           5
100
AcDbVertex
100
AcDb2dVertex
 10
5.062703239446
 20
-4.539065032066
 30
0.0
 70
           8
  0
VERTEX
  5
13A
100
AcDbEntity
  8
CAD
  6
Continuous
 62
           5
100
AcDbVertex
100
AcDb2dVertex
 10
4.720426622809
 20
-4.542133981746
 30
0.0
 70
           8
  0
VERTEX
  5
13B
100
AcDbEntity
  8
CAD
  6
Continuous
 62
           5
100
AcDbVertex
100
AcDb2dVertex
 10
4.445577879131
 20
-4.548688381318
 30
0.0
 70
           8
  0
VERTEX
  5
13C
100
AcDbEntity
  8
CAD
  6
Continuous
 62
           5
100
AcDbVertex
100
AcDb2dVertex
 10
4.256415896016
 20
-4.559211149726
 30
0.0
 70
           8
  0
VERTEX
  5
13D
100
AcDbEntity
  8
CAD
  6
Continuous
 62
           5
100
AcDbVertex
100
AcDb2dVertex
 10
4.143409260345
 20
-4.572898167375
 30
0.0
 70
           8
  0
VERTEX
  5
13E
100
AcDbEntity
  8
CAD
  6
Continuous
 62
           5
100
AcDbVertex
100
AcDb2dVertex
 10
4.090078983818
 20
-4.588623555032
 30
0.0
 70
           8
  0
VERTEX
  5
13F
100
AcDbEntity
  8
CAD
  6
Continuous
 62
           5
100
AcDbVertex
100
AcDb2dVertex
 10
4.079946078136
 20
-4.605261433465
 30
0.0
 70
           8
  0
VERTEX
  5
140
100
AcDbEntity
  8
CAD
  6
Continuous
 62
           5
100
AcDbVertex
100
AcDb2dVertex
 10
4.096531554998
 20
-4.621685923442
 30
0.0
 70
           8
  0
VERTEX
  5
141
100
AcDbEntity
  8
CAD
  6
Continuous
 62
           5
100
AcDbVertex
100
AcDb2dVertex
 10
4.123356426105
 20
-4.636771145731
 30
0.0
 70
           8
  0
VERTEX
  5
142
100
AcDbEntity
  8
CAD
  6
Continuous
 62
           5
100
AcDbVertex
100
AcDb2dVertex
 10
4.143941703157
 20
-4.649391221099
 30
0.0
 70
           8
  0
VERTEX
  5
143
100
AcDbEntity
  8
CAD
  6
Continuous
 62
           5
100
AcDbVertex
100
AcDb2dVertex
 10
4.141808397855
 20
-4.658420270315
 30
0.0
 70
           8
  0
SEQEND
  5
144
100
AcDbEntity
  8
CAD
  6
Continuous
 62
           5
  0
LINE
  5
145
100
AcDbEntity
  8
CAD
  6
Continuous
 62
           5
100
AcDbLine
 10
-8.603865689063
 20
-4.005038574083
 30
0.0
 11
-4.603865689063
 21
-4.005038574083
 31
0.0
1001
ACAD
1000
TCW40_DEV_WIDTH
1002
{
1040
-3.0
1002
}
  0
LINE
  5
146
100
AcDbEntity
  8
CAD
  6
Continuous
 62
           5
100
AcDbLine
 10
-14.075836299189
 20
3.993955471755
 30
0.0
 11
-10.075836299189
 21
3.993955471755
 31
0.0
1001
ACAD
1000
TCW40_DEV_WIDTH
1002
{
1040
-3.0
1002
}
  0
LINE
  5
147
100
AcDbEntity
  8
CAD
  6
Continuous
 62
           5
100
AcDbLine
 10
-14.075836299189
 20
3.618955471755
 30
0.0
 11
-10.103865689063
 21
3.618955471755
 31
0.0
1001
ACAD
1000
TCW40_DEV_WIDTH
1002
{
1040
-3.0
1002
}
  0
CIRCLE
  5
148
100
AcDbEntity
  8
CAD
  6
Continuous
 62
           5
100
AcDbCircle
 10
2.0
 20
0.0
 30
0.0
 40
0.0625
1001
ACAD
1000
TCW40_DEV_WIDTH
1002
{
1040
-3.0
1002
}
  0
CIRCLE
  5
149
100
AcDbEntity
  8
CAD
  6
Continuous
 62
           5
100
AcDbCircle
 10
-32.919331590571
 20
9.890622834866
 30
0.0
 40
0.25
1001
ACAD
1000
TCW40_DEV_WIDTH
1002
{
1040
-3.0
1002
}
  0
ARC
  5
14A
100
AcDbEntity
  8
CAD
  6
Continuous
 62
           5
100
AcDbCircle
 10
-31.986318888679
 20
9.640622834866
 30
0.0
 40
0.1875
100
AcDbArc
 50
90.0
 51
165.0
1001
ACAD
1000
TCW40_DEV_WIDTH
1002
{
1040
-3.0
1002
}
  0
ARC
  5
14B
100
AcDbEntity
  8
CAD
  6
Continuous
 62
           5
100
AcDbCircle
 10
-31.986318888679
 20
10.029834783733
 30
0.0
 40
0.201711948866
100
AcDbArc
 50
-90.0
 51
-43.642159432842
1001
ACAD
1000
TCW40_DEV_WIDTH
1002
{
1040
-3.0
1002
}
  0
ARC
  5
14C
100
AcDbEntity
  8
CAD
  6
Continuous
 62
           5
100
AcDbCircle
 10
-31.986318888679
 20
10.140622834866
 30
0.0
 40
0.1875
100
AcDbArc
 50
-165.0
 51
-90.0
1001
ACAD
1000
TCW40_DEV_WIDTH
1002
{
1040
-3.0
1002
}
  0
ARC
  5
14D
100
AcDbEntity
  8
CAD
  6
Continuous
 62
           5
100
AcDbCircle
 10
-31.986318888679
 20
9.751410886
 30
0.0
 40
0.201711948866
100
AcDbArc
 50
43.642159432842
 51
90.0
1001
ACAD
1000
TCW40_DEV_WIDTH
1002
{
1040
-3.0
1002
}
  0
ARC
  5
14E
100
AcDbEntity
  8
CAD
  6
Continuous
 62
           5
100
AcDbCircle
 10
-31.986318888679
 20
10.140622834866
 30
0.0
 40
0.1875
100
AcDbArc
 50
120.000000000001
 51
195.0
1001
ACAD
1000
TCW40_DEV_WIDTH
1002
{
1040
-3.0
1002
}
  0
ARC
  5
14F
100
AcDbEntity
  8
CAD
  6
Continuous
 62
           5
100
AcDbCircle
 10
-32.180924863112
 20
10.477690270041
 30
0.0
 40
0.201711948866
100
AcDbArc
 50
-60.0
 51
-13.642159432843
1001
ACAD
1000
TCW40_DEV_WIDTH
1002
{
1040
-3.0
1002
}
  0
ARC
  5
150
100
AcDbEntity
  8
CAD
  6
Continuous
 62
           5
100
AcDbCircle
 10
-32.236318888679
 20
10.573635536758
 30
0.0
 40
0.1875
100
AcDbArc
 50
-135.0
 51
-60.0
1001
ACAD
1000
TCW40_DEV_WIDTH
1002
{
1040
-3.0
1002
}
  0
ARC
  5
151
100
AcDbEntity
  8
CAD
  6
Continuous
 62
           5
100
AcDbCircle
 10
-32.041712914245
 20
10.236568101584
 30
0.0
 40
0.201711948866
100
AcDbArc
 50
73.642159432842
 51
120.000000000001
1001
ACAD
1000
TCW40_DEV_WIDTH
1002
{
1040
-3.0
1002
}
  0
ARC
  5
152
100
AcDbEntity
  8
CAD
  6
Continuous
 62
           5
100
AcDbCircle
 10
-32.236318888679
 20
10.573635536758
 30
0.0
 40
0.1875
100
AcDbArc
 50
150.0
 51
225.0
1001
ACAD
1000
TCW40_DEV_WIDTH
1002
{
1040
-3.0
1002
}
  0
ARC
  5
153
100
AcDbEntity
  8
CAD
  6
Continuous
 62
           5
100
AcDbCircle
 10
-32.573386323853
 20
10.768241511192
 30
0.0
 40
0.201711948866
100
AcDbArc
 50
-30.0
 51
16.357840567158
1001
ACAD
1000
TCW40_DEV_WIDTH
1002
{
1040
-3.0
1002
}
  0
ARC
  5
154
100
AcDbEntity
  8
CAD
  6
Continuous
 62
           5
100
AcDbCircle
 10
-32.669331590571
 20
10.823635536758
 30
0.0
 40
0.1875
100
AcDbArc
 50
-105.000000000001
 51
-30.0
1001
ACAD
1000
TCW40_DEV_WIDTH
1002
{
1040
-3.0
1002
}
  0
ARC
  5
155
100
AcDbEntity
  8
CAD
  6
Continuous
 62
           5
100
AcDbCircle
 10
-32.332264155396
 20
10.629029562325
 30
0.0
 40
0.201711948866
100
AcDbArc
 50
103.642159432842
 51
150.0
1001
ACAD
1000
TCW40_DEV_WIDTH
1002
{
1040
-3.0
1002
}
  0
ARC
  5
156
100
AcDbEntity
  8
CAD
  6
Continuous
 62
           5
100
AcDbCircle
 10
-32.669331590571
 20
10.823635536758
 30
0.0
 40
0.1875
100
AcDbArc
 50
180.0
 51
254.999999999999
1001
ACAD
1000
TCW40_DEV_WIDTH
1002
{
1040
-3.0
1002
}
  0
ARC
  5
157
100
AcDbEntity
  8
CAD
  6
Continuous
 62
           5
100
AcDbCircle
 10
-33.058543539437
 20
10.823635536758
 30
0.0
 40
0.201711948866
100
AcDbArc
 50
0.0
 51
46.357840567157
1001
ACAD
1000
TCW40_DEV_WIDTH
1002
{
1040
-3.0
1002
}
  0
ARC
  5
158
100
AcDbEntity
  8
CAD
  6
Continuous
 62
           5
100
AcDbCircle
 10
-33.169331590571
 20
10.823635536758
 30
0.0
 40
0.1875
100
AcDbArc
 50
-75.000000000001
 51
0.0
1001
ACAD
1000
TCW40_DEV_WIDTH
1002
{
1040
-3.0
1002
}
  0
ARC
  5
159
100
AcDbEntity
  8
CAD
  6
Continuous
 62
           5
100
AcDbCircle
 10
-32.780119641705
 20
10.823635536758
 30
0.0
 40
0.201711948866
100
AcDbArc
 50
133.642159432843
 51
180.0
1001
ACAD
1000
TCW40_DEV_WIDTH
1002
{
1040
-3.0
1002
}
  0
ARC
  5
15A
100
AcDbEntity
  8
CAD
  6
Continuous
 62
           5
100
AcDbCircle
 10
-33.169331590571
 20
10.823635536758
 30
0.0
 40
0.1875
100
AcDbArc
 50
-150.0
 51
-75.000000000001
1001
ACAD
1000
TCW40_DEV_WIDTH
1002
{
1040
-3.0
1002
}
  0
ARC
  5
15B
100
AcDbEntity
  8
CAD
  6
Continuous
 62
           5
100
AcDbCircle
 10
-33.506399025745
 20
10.629029562325
 30
0.0
 40
0.201711948866
100
AcDbArc
 50
30.0
 51
76.357840567158
1001
ACAD
1000
TCW40_DEV_WIDTH
1002
{
1040
-3.0
1002
}
  0
ARC
  5
15C
100
AcDbEntity
  8
CAD
  6
Continuous
 62
           5
100
AcDbCircle
 10
-33.602344292463
 20
10.573635536758
 30
0.0
 40
0.1875
100
AcDbArc
 50
-45.0
 51
30.000000000001
1001
ACAD
1000
TCW40_DEV_WIDTH
1002
{
1040
-3.0
1002
}
  0
ARC
  5
15D
100
AcDbEntity
  8
CAD
  6
Continuous
 62
           5
100
AcDbCircle
 10
-33.265276857288
 20
10.768241511192
 30
0.0
 40
0.201711948866
100
AcDbArc
 50
163.642159432842
 51
210.0
1001
ACAD
1000
TCW40_DEV_WIDTH
1002
{
1040
-3.0
1002
}
  0
ARC
  5
15E
100
AcDbEntity
  8
CAD
  6
Continuous
 62
           5
100
AcDbCircle
 10
-33.602344292463
 20
10.573635536758
 30
0.0
 40
0.1875
100
AcDbArc
 50
-120.000000000001
 51
-44.999999999999
1001
ACAD
1000
TCW40_DEV_WIDTH
1002
{
1040
-3.0
1002
}
  0
ARC
  5
15F
100
AcDbEntity
  8
CAD
  6
Continuous
 62
           5
100
AcDbCircle
 10
-33.796950266896
 20
10.236568101584
 30
0.0
 40
0.201711948866
100
AcDbArc
 50
60.0
 51
106.357840567158
1001
ACAD
1000
TCW40_DEV_WIDTH
1002
{
1040
-3.0
1002
}
  0
ARC
  5
160
100
AcDbEntity
  8
CAD
  6
Continuous
 62
           5
100
AcDbCircle
 10
-33.852344292463
 20
10.140622834866
 30
0.0
 40
0.1875
100
AcDbArc
 50
-15.0
 51
60.0
1001
ACAD
1000
TCW40_DEV_WIDTH
1002
{
1040
-3.0
1002
}
  0
ARC
  5
161
100
AcDbEntity
  8
CAD
  6
Continuous
 62
           5
100
AcDbCircle
 10
-33.65773831803
 20
10.477690270041
 30
0.0
 40
0.201711948866
100
AcDbArc
 50
-166.357840567158
 51
-120.000000000001
1001
ACAD
1000
TCW40_DEV_WIDTH
1002
{
1040
-3.0
1002
}
  0
ARC
  5
162
100
AcDbEntity
  8
CAD
  6
Continuous
 62
           5
100
AcDbCircle
 10
-33.852344292463
 20
10.140622834866
 30
0.0
 40
0.1875
100
AcDbArc
 50
-90.0
 51
-15.0
1001
ACAD
1000
TCW40_DEV_WIDTH
1002
{
1040
-3.0
1002
}
  0
ARC
  5
163
100
AcDbEntity
  8
CAD
  6
Continuous
 62
           5
100
AcDbCircle
 10
-33.852344292463
 20
9.751410886
 30
0.0
 40
0.201711948866
100
AcDbArc
 50
90.0
 51
136.357840567158
1001
ACAD
1000
TCW40_DEV_WIDTH
1002
{
1040
-3.0
1002
}
  0
ARC
  5
164
100
AcDbEntity
  8
CAD
  6
Continuous
 62
           5
100
AcDbCircle
 10
-33.852344292463
 20
9.640622834866
 30
0.0
 40
0.1875
100
AcDbArc
 50
15.0
 51
90.0
1001
ACAD
1000
TCW40_DEV_WIDTH
1002
{
1040
-3.0
1002
}
  0
ARC
  5
165
100
AcDbEntity
  8
CAD
  6
Continuous
 62
           5
100
AcDbCircle
 10
-33.852344292463
 20
10.029834783733
 30
0.0
 40
0.201711948866
100
AcDbArc
 50
-136.357840567158
 51
-90.0
1001
ACAD
1000
TCW40_DEV_WIDTH
1002
{
1040
-3.0
1002
}
  0
ARC
  5
166
100
AcDbEntity
  8
CAD
  6
Continuous
 62
           5
100
AcDbCircle
 10
-33.852344292463
 20
9.640622834866
 30
0.0
 40
0.1875
100
AcDbArc
 50
-60.0
 51
15.0
1001
ACAD
1000
TCW40_DEV_WIDTH
1002
{
1040
-3.0
1002
}
  0
ARC
  5
167
100
AcDbEntity
  8
CAD
  6
Continuous
 62
           5
100
AcDbCircle
 10
-33.65773831803
 20
9.303555399692
 30
0.0
 40
0.201711948866
100
AcDbArc
 50
120.0
 51
166.357840567157
1001
ACAD
1000
TCW40_DEV_WIDTH
1002
{
1040
-3.0
1002
}
  0
ARC
  5
168
100
AcDbEntity
  8
CAD
  6
Continuous
 62
           5
100
AcDbCircle
 10
-33.602344292463
 20
9.207610132974
 30
0.0
 40
0.1875
100
AcDbArc
 50
45.0
 51
120.0
1001
ACAD
1000
TCW40_DEV_WIDTH
1002
{
1040
-3.0
1002
}
  0
ARC
  5
169
100
AcDbEntity
  8
CAD
  6
Continuous
 62
           5
100
AcDbCircle
 10
-33.796950266896
 20
9.544677568149
 30
0.0
 40
0.201711948866
100
AcDbArc
 50
-106.357840567158
 51
-59.999999999999
1001
ACAD
1000
TCW40_DEV_WIDTH
1002
{
1040
-3.0
1002
}
  0
ARC
  5
16A
100
AcDbEntity
  8
CAD
  6
Continuous
 62
           5
100
AcDbCircle
 10
-33.602344292463
 20
9.207610132974
 30
0.0
 40
0.1875
100
AcDbArc
 50
-30.0
 51
45.0
1001
ACAD
1000
TCW40_DEV_WIDTH
1002
{
1040
-3.0
1002
}
  0
ARC
  5
16B
100
AcDbEntity
  8
CAD
  6
Continuous
 62
           5
100
AcDbCircle
 10
-33.265276857288
 20
9.013004158541
 30
0.0
 40
0.201711948866
100
AcDbArc
 50
150.0
 51
196.357840567158
1001
ACAD
1000
TCW40_DEV_WIDTH
1002
{
1040
-3.0
1002
}
  0
ARC
  5
16C
100
AcDbEntity
  8
CAD
  6
Continuous
 62
           5
100
AcDbCircle
 10
-33.169331590571
 20
8.957610132974
 30
0.0
 40
0.1875
100
AcDbArc
 50
74.999999999999
 51
150.000000000001
1001
ACAD
1000
TCW40_DEV_WIDTH
1002
{
1040
-3.0
1002
}
  0
ARC
  5
16D
100
AcDbEntity
  8
CAD
  6
Continuous
 62
           5
100
AcDbCircle
 10
-33.506399025745
 20
9.152216107407
 30
0.0
 40
0.201711948866
100
AcDbArc
 50
-76.357840567158
 51
-30.0
1001
ACAD
1000
TCW40_DEV_WIDTH
1002
{
1040
-3.0
1002
}
  0
ARC
  5
16E
100
AcDbEntity
  8
CAD
  6
Continuous
 62
           5
100
AcDbCircle
 10
-33.169331590571
 20
8.957610132974
 30
0.0
 40
0.1875
100
AcDbArc
 50
0.0
 51
74.999999999999
1001
ACAD
1000
TCW40_DEV_WIDTH
1002
{
1040
-3.0
1002
}
  0
ARC
  5
16F
100
AcDbEntity
  8
CAD
  6
Continuous
 62
           5
100
AcDbCircle
 10
-32.780119641705
 20
8.957610132974
 30
0.0
 40
0.201711948866
100
AcDbArc
 50
180.0
 51
226.357840567157
1001
ACAD
1000
TCW40_DEV_WIDTH
1002
{
1040
-3.0
1002
}
  0
ARC
  5
170
100
AcDbEntity
  8
CAD
  6
Continuous
 62
           5
100
AcDbCircle
 10
-32.669331590571
 20
8.957610132974
 30
0.0
 40
0.1875
100
AcDbArc
 50
105.000000000001
 51
180.0
1001
ACAD
1000
TCW40_DEV_WIDTH
1002
{
1040
-3.0
1002
}
  0
ARC
  5
171
100
AcDbEntity
  8
CAD
  6
Continuous
 62
           5
100
AcDbCircle
 10
-33.058543539437
 20
8.957610132974
 30
0.0
 40
0.201711948866
100
AcDbArc
 50
-46.357840567158
 51
0.0
1001
ACAD
1000
TCW40_DEV_WIDTH
1002
{
1040
-3.0
1002
}
  0
ARC
  5
172
100
AcDbEntity
  8
CAD
  6
Continuous
 62
           5
100
AcDbCircle
 10
-32.669331590571
 20
8.957610132974
 30
0.0
 40
0.1875
100
AcDbArc
 50
30.0
 51
105.000000000001
1001
ACAD
1000
TCW40_DEV_WIDTH
1002
{
1040
-3.0
1002
}
  0
ARC
  5
173
100
AcDbEntity
  8
CAD
  6
Continuous
 62
           5
100
AcDbCircle
 10
-32.332264155396
 20
9.152216107407
 30
0.0
 40
0.201711948866
100
AcDbArc
 50
-150.0
 51
-103.642159432842
1001
ACAD
1000
TCW40_DEV_WIDTH
1002
{
1040
-3.0
1002
}
  0
ARC
  5
174
100
AcDbEntity
  8
CAD
  6
Continuous
 62
           5
100
AcDbCircle
 10
-32.236318888679
 20
9.207610132974
 30
0.0
 40
0.1875
100
AcDbArc
 50
135.0
 51
210.000000000001
1001
ACAD
1000
TCW40_DEV_WIDTH
1002
{
1040
-3.0
1002
}
  0
ARC
  5
175
100
AcDbEntity
  8
CAD
  6
Continuous
 62
           5
100
AcDbCircle
 10
-32.573386323853
 20
9.013004158541
 30
0.0
 40
0.201711948866
100
AcDbArc
 50
-16.357840567158
 51
30.0
1001
ACAD
1000
TCW40_DEV_WIDTH
1002
{
1040
-3.0
1002
}
  0
ARC
  5
176
100
AcDbEntity
  8
CAD
  6
Continuous
 62
           5
100
AcDbCircle
 10
-32.236318888679
 20
9.207610132974
 30
0.0
 40
0.1875
100
AcDbArc
 50
60.0
 51
135.0
1001
ACAD
1000
TCW40_DEV_WIDTH
1002
{
1040
-3.0
1002
}
  0
ARC
  5
177
100
AcDbEntity
  8
CAD
  6
Continuous
 62
           5
100
AcDbCircle
 10
-32.041712914245
 20
9.544677568149
 30
0.0
 40
0.201711948866
100
AcDbArc
 50
-120.000000000001
 51
-73.642159432842
1001
ACAD
1000
TCW40_DEV_WIDTH
1002
{
1040
-3.0
1002
}
  0
ARC
  5
178
100
AcDbEntity
  8
CAD
  6
Continuous
 62
           5
100
AcDbCircle
 10
-31.986318888679
 20
9.640622834866
 30
0.0
 40
0.1875
100
AcDbArc
 50
165.0
 51
239.999999999999
1001
ACAD
1000
TCW40_DEV_WIDTH
1002
{
1040
-3.0
1002
}
  0
ARC
  5
179
100
AcDbEntity
  8
CAD
  6
Continuous
 62
           5
100
AcDbCircle
 10
-32.180924863112
 20
9.303555399692
 30
0.0
 40
0.201711948866
100
AcDbArc
 50
13.642159432842
 51
59.999999999999
1001
ACAD
1000
TCW40_DEV_WIDTH
1002
{
1040
-3.0
1002
}
  0
TEXT
  5
17A
100
AcDbEntity
  8
CAD
  6
Continuous
 62
           5
100
AcDbText
 10
-33.081047713147
 20
10.292819767458
 30
0.0
 40
0.196850396693
  1
12
  7
Arial
 72
           1
 11
-32.9276642086
 21
10.292819766548
 31
0.0
100
AcDbText
1001
TCAD
1000
TCW40_TEXT
1002
{
1000
Arial
1070
           0
1070
        1026
1002
}
  0
TEXT
  5
17B
100
AcDbEntity
  8
CAD
  6
Continuous
 62
           5
100
AcDbText
 10
-32.950225824306
 20
6.648787852319
 30
0.0
 40
0.196850396693
  1
96
  7
Arial
 72
           1
 11
-32.796842319759
 21
6.648787851409
 31
0.0
100
AcDbText
1001
TCAD
1000
TCW40_TEXT
1002
{
1000
Arial
1070
           0
1070
        1026
1002
}
  0
ARC
  5
17C
100
AcDbEntity
  8
CAD
  6
Continuous
 62
           5
100
AcDbCircle
 10
-25.203743435182
 20
0.023656290073
 30
0.0
 40
0.1875
100
AcDbArc
 50
90.0
 51
178.125
1001
ACAD
1000
TCW40_DEV_WIDTH
1002
{
1040
-3.0
1002
}
  0
ARC
  5
17D
100
AcDbEntity
  8
CAD
  6
Continuous
 62
           5
100
AcDbCircle
 10
-25.203743435182
 20
0.337660348022
 30
0.0
 40
0.126504057949
100
AcDbArc
 50
-90.0
 51
-30.394083911348
1001
ACAD
1000
TCW40_DEV_WIDTH
1002
{
1040
-3.0
1002
}
  0
ARC
  5
17E
100
AcDbEntity
  8
CAD
  6
Continuous
 62
           5
100
AcDbCircle
 10
-25.203743435182
 20
0.523656290073
 30
0.0
 40
0.1875
100
AcDbArc
 50
-178.125
 51
-90.0
1001
ACAD
1000
TCW40_DEV_WIDTH
1002
{
1040
-3.0
1002
}
  0
ARC
  5
17F
100
AcDbEntity
  8
CAD
  6
Continuous
 62
           5
100
AcDbCircle
 10
-25.203743435182
 20
0.209652232124
 30
0.0
 40
0.126504057949
100
AcDbArc
 50
30.394083911348
 51
90.0
1001
ACAD
1000
TCW40_DEV_WIDTH
1002
{
1040
-3.0
1002
}
  0
ARC
  5
180
100
AcDbEntity
  8
CAD
  6
Continuous
 62
           5
100
AcDbCircle
 10
-25.203743435182
 20
0.523656290073
 30
0.0
 40
0.1875
100
AcDbArc
 50
93.75
 51
181.875
1001
ACAD
1000
TCW40_DEV_WIDTH
1002
{
1040
-3.0
1002
}
  0
ARC
  5
181
100
AcDbEntity
  8
CAD
  6
Continuous
 62
           5
100
AcDbCircle
 10
-25.224280283163
 20
0.836988041231
 30
0.0
 40
0.126504057949
100
AcDbArc
 50
-86.249999999999
 51
-26.644083911347
1001
ACAD
1000
TCW40_DEV_WIDTH
1002
{
1040
-3.0
1002
}
  0
ARC
  5
182
100
AcDbEntity
  8
CAD
  6
Continuous
 62
           5
100
AcDbCircle
 10
-25.236444999797
 20
1.022585751693
 30
0.0
 40
0.1875
100
AcDbArc
 50
-174.375
 51
-86.25
1001
ACAD
1000
TCW40_DEV_WIDTH
1002
{
1040
-3.0
1002
}
  0
ARC
  5
183
100
AcDbEntity
  8
CAD
  6
Continuous
 62
           5
100
AcDbCircle
 10
-25.215908151816
 20
0.709254000535
 30
0.0
 40
0.126504057949
100
AcDbArc
 50
34.144083911348
 51
93.750000000001
1001
ACAD
1000
TCW40_DEV_WIDTH
1002
{
1040
-3.0
1002
}
  0
ARC
  5
184
100
AcDbEntity
  8
CAD
  6
Continuous
 62
           5
100
AcDbCircle
 10
-25.236444999797
 20
1.022585751693
 30
0.0
 40
0.1875
100
AcDbArc
 50
97.5
 51
185.625
1001
ACAD
1000
TCW40_DEV_WIDTH
1002
{
1040
-3.0
1002
}
  0
ARC
  5
185
100
AcDbEntity
  8
CAD
  6
Continuous
 62
           5
100
AcDbCircle
 10
-25.277430753823
 20
1.333903461396
 30
0.0
 40
0.126504057949
100
AcDbArc
 50
-82.5
 51
-22.894083911347
1001
ACAD
1000
TCW40_DEV_WIDTH
1002
{
1040
-3.0
1002
}
  0
ARC
  5
186
100
AcDbEntity
  8
CAD
  6
Continuous
 62
           5
100
AcDbCircle
 10
-25.301708095907
 20
1.518308182379
 30
0.0
 40
0.1875
100
AcDbArc
 50
-170.625
 51
-82.5
1001
ACAD
1000
TCW40_DEV_WIDTH
1002
{
1040
-3.0
1002
}
  0
ARC
  5
187
100
AcDbEntity
  8
CAD
  6
Continuous
 62
           5
100
AcDbCircle
 10
-25.260722341881
 20
1.206990472676
 30
0.0
 40
0.126504057949
100
AcDbArc
 50
37.894083911347
 51
97.5
1001
ACAD
1000
TCW40_DEV_WIDTH
1002
{
1040
-3.0
1002
}
  0
ARC
  5
188
100
AcDbEntity
  8
CAD
  6
Continuous
 62
           5
100
AcDbCircle
 10
-25.301708095907
 20
1.518308182379
 30
0.0
 40
0.1875
100
AcDbArc
 50
101.250000000001
 51
189.375
1001
ACAD
1000
TCW40_DEV_WIDTH
1002
{
1040
-3.0
1002
}
  0
ARC
  5
189
100
AcDbEntity
  8
CAD
  6
Continuous
 62
           5
100
AcDbCircle
 10
-25.362967248687
 20
1.826278740402
 30
0.0
 40
0.126504057949
100
AcDbArc
 50
-78.75
 51
-19.144083911347
1001
ACAD
1000
TCW40_DEV_WIDTH
1002
{
1040
-3.0
1002
}
  0
ARC
  5
18A
100
AcDbEntity
  8
CAD
  6
Continuous
 62
           5
100
AcDbCircle
 10
-25.399253256915
 20
2.008700822581
 30
0.0
 40
0.1875
100
AcDbArc
 50
-166.875
 51
-78.749999999999
1001
ACAD
1000
TCW40_DEV_WIDTH
1002
{
1040
-3.0
1002
}
  0
ARC
  5
18B
100
AcDbEntity
  8
CAD
  6
Continuous
 62
           5
100
AcDbCircle
 10
-25.337994104136
 20
1.700730264558
 30
0.0
 40
0.126504057949
100
AcDbArc
 50
41.644083911347
 51
101.25
1001
ACAD
1000
TCW40_DEV_WIDTH
1002
{
1040
-3.0
1002
}
  0
ARC
  5
18C
100
AcDbEntity
  8
CAD
  6
Continuous
 62
           5
100
AcDbCircle
 10
-25.399253256915
 20
2.008700822581
 30
0.0
 40
0.1875
100
AcDbArc
 50
105.0
 51
193.125
1001
ACAD
1000
TCW40_DEV_WIDTH
1002
{
1040
-3.0
1002
}
  0
ARC
  5
18D
100
AcDbEntity
  8
CAD
  6
Continuous
 62
           5
100
AcDbCircle
 10
-25.480523487352
 20
2.312005451713
 30
0.0
 40
0.126504057949
100
AcDbArc
 50
-75.0
 51
-15.394083911348
1001
ACAD
1000
TCW40_DEV_WIDTH
1002
{
1040
-3.0
1002
}
  0
ARC
  5
18E
100
AcDbEntity
  8
CAD
  6
Continuous
 62
           5
100
AcDbCircle
 10
-25.528662779466
 20
2.491663735726
 30
0.0
 40
0.1875
100
AcDbArc
 50
-163.125
 51
-75.0
1001
ACAD
1000
TCW40_DEV_WIDTH
1002
{
1040
-3.0
1002
}
  0
ARC
  5
18F
100
AcDbEntity
  8
CAD
  6
Continuous
 62
           5
100
AcDbCircle
 10
-25.44739254903
 20
2.188359106593
 30
0.0
 40
0.126504057949
100
AcDbArc
 50
45.394083911349
 51
105.0
1001
ACAD
1000
TCW40_DEV_WIDTH
1002
{
1040
-3.0
1002
}
  0
ARC
  5
190
100
AcDbEntity
  8
CAD
  6
Continuous
 62
           5
100
AcDbCircle
 10
-25.528662779466
 20
2.491663735726
 30
0.0
 40
0.1875
100
AcDbArc
 50
108.750000000001
 51
196.875
1001
ACAD
1000
TCW40_DEV_WIDTH
1002
{
1040
-3.0
1002
}
  0
ARC
  5
191
100
AcDbEntity
  8
CAD
  6
Continuous
 62
           5
100
AcDbCircle
 10
-25.629596075956
 20
2.789003638981
 30
0.0
 40
0.126504057949
100
AcDbArc
 50
-71.249999999999
 51
-11.644083911348
1001
ACAD
1000
TCW40_DEV_WIDTH
1002
{
1040
-3.0
1002
}
  0
ARC
  5
192
100
AcDbEntity
  8
CAD
  6
Continuous
 62
           5
100
AcDbCircle
 10
-25.689382512118
 20
2.965128800473
 30
0.0
 40
0.1875
100
AcDbArc
 50
-159.375
 51
-71.249999999999
1001
ACAD
1000
TCW40_DEV_WIDTH
1002
{
1040
-3.0
1002
}
  0
ARC
  5
193
100
AcDbEntity
  8
CAD
  6
Continuous
 62
           5
100
AcDbCircle
 10
-25.588449215628
 20
2.667788897218
 30
0.0
 40
0.126504057949
100
AcDbArc
 50
49.144083911347
 51
108.750000000001
1001
ACAD
1000
TCW40_DEV_WIDTH
1002
{
1040
-3.0
1002
}
  0
ARC
  5
194
100
AcDbEntity
  8
CAD
  6
Continuous
 62
           5
100
AcDbCircle
 10
-25.689382512118
 20
2.965128800473
 30
0.0
 40
0.1875
100
AcDbArc
 50
112.5
 51
200.625
1001
ACAD
1000
TCW40_DEV_WIDTH
1002
{
1040
-3.0
1002
}
  0
ARC
  5
195
100
AcDbEntity
  8
CAD
  6
Continuous
 62
           5
100
AcDbCircle
 10
-25.80954666279
 20
3.255230722737
 30
0.0
 40
0.126504057949
100
AcDbArc
 50
-67.5
 51
-7.894083911348
1001
ACAD
1000
TCW40_DEV_WIDTH
1002
{
1040
-3.0
1002
}
  0
ARC
  5
196
100
AcDbEntity
  8
CAD
  6
Continuous
 62
           5
100
AcDbCircle
 10
-25.8807242283
 20
3.427068566729
 30
0.0
 40
0.1875
100
AcDbArc
 50
-155.625
 51
-67.5
1001
ACAD
1000
TCW40_DEV_WIDTH
1002
{
1040
-3.0
1002
}
  0
ARC
  5
197
100
AcDbEntity
  8
CAD
  6
Continuous
 62
           5
100
AcDbCircle
 10
-25.760560077628
 20
3.136966644464
 30
0.0
 40
0.126504057949
100
AcDbArc
 50
52.894083911348
 51
112.5
1001
ACAD
1000
TCW40_DEV_WIDTH
1002
{
1040
-3.0
1002
}
  0
ARC
  5
198
100
AcDbEntity
  8
CAD
  6
Continuous
 62
           5
100
AcDbCircle
 10
-25.8807242283
 20
3.427068566729
 30
0.0
 40
0.1875
100
AcDbArc
 50
116.25
 51
204.375
1001
ACAD
1000
TCW40_DEV_WIDTH
1002
{
1040
-3.0
1002
}
  0
ARC
  5
199
100
AcDbEntity
  8
CAD
  6
Continuous
 62
           5
100
AcDbCircle
 10
-26.019604671814
 20
3.708690247034
 30
0.0
 40
0.126504057949
100
AcDbArc
 50
-63.75
 51
-4.144083911348
1001
ACAD
1000
TCW40_DEV_WIDTH
1002
{
1040
-3.0
1002
}
  0
ARC
  5
19A
100
AcDbEntity
  8
CAD
  6
Continuous
 62
           5
100
AcDbCircle
 10
-26.10186857341
 20
3.875504937495
 30
0.0
 40
0.1875
100
AcDbArc
 50
-151.875
 51
-63.75
1001
ACAD
1000
TCW40_DEV_WIDTH
1002
{
1040
-3.0
1002
}
  0
ARC
  5
19B
100
AcDbEntity
  8
CAD
  6
Continuous
 62
           5
100
AcDbCircle
 10
-25.962988129896
 20
3.59388325719
 30
0.0
 40
0.126504057949
100
AcDbArc
 50
56.644083911348
 51
116.25
1001
ACAD
1000
TCW40_DEV_WIDTH
1002
{
1040
-3.0
1002
}
  0
ARC
  5
19C
100
AcDbEntity
  8
CAD
  6
Continuous
 62
           5
100
AcDbCircle
 10
-26.10186857341
 20
3.875504937495
 30
0.0
 40
0.1875
100
AcDbArc
 50
120.0
 51
208.124999999999
1001
ACAD
1000
TCW40_DEV_WIDTH
1002
{
1040
-3.0
1002
}
  0
ARC
  5
19D
100
AcDbEntity
  8
CAD
  6
Continuous
 62
           5
100
AcDbCircle
 10
-26.258870602384
 20
4.14744042857
 30
0.0
 40
0.126504057949
100
AcDbArc
 50
-59.999999999999
 51
-0.394083911348
1001
ACAD
1000
TCW40_DEV_WIDTH
1002
{
1040
-3.0
1002
}
  0
ARC
  5
19E
100
AcDbEntity
  8
CAD
  6
Continuous
 62
           5
100
AcDbCircle
 10
-26.35186857341
 20
4.308517639387
 30
0.0
 40
0.1875
100
AcDbArc
 50
-148.124999999999
 51
-60.0
1001
ACAD
1000
TCW40_DEV_WIDTH
1002
{
1040
-3.0
1002
}
  0
ARC
  5
19F
100
AcDbEntity
  8
CAD
  6
Continuous
 62
           5
100
AcDbCircle
 10
-26.194866544436
 20
4.036582148312
 30
0.0
 40
0.126504057949
100
AcDbArc
 50
60.394083911347
 51
120.0
1001
ACAD
1000
TCW40_DEV_WIDTH
1002
{
1040
-3.0
1002
}
  0
ARC
  5
1A0
100
AcDbEntity
  8
CAD
  6
Continuous
 62
           5
100
AcDbCircle
 10
-26.35186857341
 20
4.308517639387
 30
0.0
 40
0.1875
100
AcDbArc
 50
123.750000000001
 51
211.875000000001
1001
ACAD
1000
TCW40_DEV_WIDTH
1002
{
1040
-3.0
1002
}
  0
ARC
  5
1A1
100
AcDbEntity
  8
CAD
  6
Continuous
 62
           5
100
AcDbCircle
 10
-26.526319881054
 20
4.569602471711
 30
0.0
 40
0.126504057949
100
AcDbArc
 50
-56.25
 51
3.355916088652
1001
ACAD
1000
TCW40_DEV_WIDTH
1002
{
1040
-3.0
1002
}
  0
ARC
  5
1A2
100
AcDbEntity
  8
CAD
  6
Continuous
 62
           5
100
AcDbCircle
 10
-26.62965368992
 20
4.724252445539
 30
0.0
 40
0.1875
100
AcDbArc
 50
-144.375
 51
-56.249999999999
1001
ACAD
1000
TCW40_DEV_WIDTH
1002
{
1040
-3.0
1002
}
  0
ARC
  5
1A3
100
AcDbEntity
  8
CAD
  6
Continuous
 62
           5
100
AcDbCircle
 10
-26.455202382276
 20
4.463167613215
 30
0.0
 40
0.126504057949
100
AcDbArc
 50
64.144083911349
 51
123.75
1001
ACAD
1000
TCW40_DEV_WIDTH
1002
{
1040
-3.0
1002
}
  0
ARC
  5
1A4
100
AcDbEntity
  8
CAD
  6
Continuous
 62
           5
100
AcDbCircle
 10
-26.62965368992
 20
4.724252445539
 30
0.0
 40
0.1875
100
AcDbArc
 50
127.5
 51
215.625
1001
ACAD
1000
TCW40_DEV_WIDTH
1002
{
1040
-3.0
1002
}
  0
ARC
  5
1A5
100
AcDbEntity
  8
CAD
  6
Continuous
 62
           5
100
AcDbCircle
 10
-26.820807248951
 20
4.973368613777
 30
0.0
 40
0.126504057949
100
AcDbArc
 50
-52.500000000001
 51
7.105916088653
1001
ACAD
1000
TCW40_DEV_WIDTH
1002
{
1040
-3.0
1002
}
  0
ARC
  5
1A6
100
AcDbEntity
  8
CAD
  6
Continuous
 62
           5
100
AcDbCircle
 10
-26.934034404424
 20
5.120929115684
 30
0.0
 40
0.1875
100
AcDbArc
 50
-140.625
 51
-52.5
1001
ACAD
1000
TCW40_DEV_WIDTH
1002
{
1040
-3.0
1002
}
  0
ARC
  5
1A7
100
AcDbEntity
  8
CAD
  6
Continuous
 62
           5
100
AcDbCircle
 10
-26.742880845393
 20
4.871812947446
 30
0.0
 40
0.126504057949
100
AcDbArc
 50
67.894083911348
 51
127.499999999999
1001
ACAD
1000
TCW40_DEV_WIDTH
1002
{
1040
-3.0
1002
}
  0
ARC
  5
1A8
100
AcDbEntity
  8
CAD
  6
Continuous
 62
           5
100
AcDbCircle
 10
-26.934034404424
 20
5.120929115684
 30
0.0
 40
0.1875
100
AcDbArc
 50
131.25
 51
219.375
1001
ACAD
1000
TCW40_DEV_WIDTH
1002
{
1040
-3.0
1002
}
  0
ARC
  5
1A9
100
AcDbEntity
  8
CAD
  6
Continuous
 62
           5
100
AcDbCircle
 10
-27.141071665957
 20
5.35700986616
 30
0.0
 40
0.126504057949
100
AcDbArc
 50
-48.750000000001
 51
10.855916088652
1001
ACAD
1000
TCW40_DEV_WIDTH
1002
{
1040
-3.0
1002
}
  0
ARC
  5
1AA
100
AcDbEntity
  8
CAD
  6
Continuous
 62
           5
100
AcDbCircle
 10
-27.263707311974
 20
5.496849019424
 30
0.0
 40
0.1875
100
AcDbArc
 50
-136.875
 51
-48.749999999999
1001
ACAD
1000
TCW40_DEV_WIDTH
1002
{
1040
-3.0
1002
}
  0
ARC
  5
1AB
100
AcDbEntity
  8
CAD
  6
Continuous
 62
           5
100
AcDbCircle
 10
-27.056670050441
 20
5.260768268948
 30
0.0
 40
0.126504057949
100
AcDbArc
 50
71.644083911348
 51
131.249999999998
1001
ACAD
1000
TCW40_DEV_WIDTH
1002
{
1040
-3.0
1002
}
  0
ARC
  5
1AC
100
AcDbEntity
  8
CAD
  6
Continuous
 62
           5
100
AcDbCircle
 10
-27.263707311974
 20
5.496849019424
 30
0.0
 40
0.1875
100
AcDbArc
 50
134.999999999999
 51
223.125
1001
ACAD
1000
TCW40_DEV_WIDTH
1002
{
1040
-3.0
1002
}
  0
ARC
  5
1AD
100
AcDbEntity
  8
CAD
  6
Continuous
 62
           5
100
AcDbCircle
 10
-27.48574171067
 20
5.718883418119
 30
0.0
 40
0.126504057949
100
AcDbArc
 50
-45.0
 51
14.605916088652
1001
ACAD
1000
TCW40_DEV_WIDTH
1002
{
1040
-3.0
1002
}
  0
ARC
  5
1AE
100
AcDbEntity
  8
CAD
  6
Continuous
 62
           5
100
AcDbCircle
 10
-27.617260702567
 20
5.850402410017
 30
0.0
 40
0.1875
100
AcDbArc
 50
-133.125
 51
-45.000000000001
1001
ACAD
1000
TCW40_DEV_WIDTH
1002
{
1040
-3.0
1002
}
  0
ARC
  5
1AF
100
AcDbEntity
  8
CAD
  6
Continuous
 62
           5
100
AcDbCircle
 10
-27.395226303872
 20
5.628368011321
 30
0.0
 40
0.126504057949
100
AcDbArc
 50
75.394083911347
 51
135.0
1001
ACAD
1000
TCW40_DEV_WIDTH
1002
{
1040
-3.0
1002
}
  0
ARC
  5
1B0
100
AcDbEntity
  8
CAD
  6
Continuous
 62
           5
100
AcDbCircle
 10
-27.617260702567
 20
5.850402410017
 30
0.0
 40
0.1875
100
AcDbArc
 50
138.75
 51
226.875
1001
ACAD
1000
TCW40_DEV_WIDTH
1002
{
1040
-3.0
1002
}
  0
ARC
  5
1B1
100
AcDbEntity
  8
CAD
  6
Continuous
 62
           5
100
AcDbCircle
 10
-27.853341453043
 20
6.05743967155
 30
0.0
 40
0.126504057949
100
AcDbArc
 50
-41.25
 51
18.355916088652
1001
ACAD
1000
TCW40_DEV_WIDTH
1002
{
1040
-3.0
1002
}
  0
ARC
  5
1B2
100
AcDbEntity
  8
CAD
  6
Continuous
 62
           5
100
AcDbCircle
 10
-27.993180606307
 20
6.180075317567
 30
0.0
 40
0.1875
100
AcDbArc
 50
-129.375
 51
-41.25
1001
ACAD
1000
TCW40_DEV_WIDTH
1002
{
1040
-3.0
1002
}
  0
ARC
  5
1B3
100
AcDbEntity
  8
CAD
  6
Continuous
 62
           5
100
AcDbCircle
 10
-27.757099855831
 20
5.973038056034
 30
0.0
 40
0.126504057949
100
AcDbArc
 50
79.144083911346
 51
138.75
1001
ACAD
1000
TCW40_DEV_WIDTH
1002
{
1040
-3.0
1002
}
  0
ARC
  5
1B4
100
AcDbEntity
  8
CAD
  6
Continuous
 62
           5
100
AcDbCircle
 10
-27.993180606307
 20
6.180075317567
 30
0.0
 40
0.1875
100
AcDbArc
 50
142.5
 51
230.625
1001
ACAD
1000
TCW40_DEV_WIDTH
1002
{
1040
-3.0
1002
}
  0
ARC
  5
1B5
100
AcDbEntity
  8
CAD
  6
Continuous
 62
           5
100
AcDbCircle
 10
-28.242296774546
 20
6.371228876598
 30
0.0
 40
0.126504057949
100
AcDbArc
 50
-37.500000000001
 51
22.105916088653
1001
ACAD
1000
TCW40_DEV_WIDTH
1002
{
1040
-3.0
1002
}
  0
ARC
  5
1B6
100
AcDbEntity
  8
CAD
  6
Continuous
 62
           5
100
AcDbCircle
 10
-28.389857276453
 20
6.484456032071
 30
0.0
 40
0.1875
100
AcDbArc
 50
-125.625
 51
-37.5
1001
ACAD
1000
TCW40_DEV_WIDTH
1002
{
1040
-3.0
1002
}
  0
ARC
  5
1B7
100
AcDbEntity
  8
CAD
  6
Continuous
 62
           5
100
AcDbCircle
 10
-28.140741108214
 20
6.29330247304
 30
0.0
 40
0.126504057949
100
AcDbArc
 50
82.894083911349
 51
142.5
1001
ACAD
1000
TCW40_DEV_WIDTH
1002
{
1040
-3.0
1002
}
  0
ARC
  5
1B8
100
AcDbEntity
  8
CAD
  6
Continuous
 62
           5
100
AcDbCircle
 10
-28.389857276453
 20
6.484456032071
 30
0.0
 40
0.1875
100
AcDbArc
 50
146.25
 51
234.375
1001
ACAD
1000
TCW40_DEV_WIDTH
1002
{
1040
-3.0
1002
}
  0
ARC
  5
1B9
100
AcDbEntity
  8
CAD
  6
Continuous
 62
           5
100
AcDbCircle
 10
-28.650942108777
 20
6.658907339715
 30
0.0
 40
0.126504057949
100
AcDbArc
 50
-33.75
 51
25.855916088652
1001
ACAD
1000
TCW40_DEV_WIDTH
1002
{
1040
-3.0
1002
}
  0
ARC
  5
1BA
100
AcDbEntity
  8
CAD
  6
Continuous
 62
           5
100
AcDbCircle
 10
-28.805592082604
 20
6.762241148581
 30
0.0
 40
0.1875
100
AcDbArc
 50
-121.874999999999
 51
-33.75
1001
ACAD
1000
TCW40_DEV_WIDTH
1002
{
1040
-3.0
1002
}
  0
ARC
  5
1BB
100
AcDbEntity
  8
CAD
  6
Continuous
 62
           5
100
AcDbCircle
 10
-28.54450725028
 20
6.587789840938
 30
0.0
 40
0.126504057949
100
AcDbArc
 50
86.644083911348
 51
146.25
1001
ACAD
1000
TCW40_DEV_WIDTH
1002
{
1040
-3.0
1002
}
  0
ARC
  5
1BC
100
AcDbEntity
  8
CAD
  6
Continuous
 62
           5
100
AcDbCircle
 10
-28.805592082604
 20
6.762241148581
 30
0.0
 40
0.1875
100
AcDbArc
 50
150.0
 51
238.125000000001
1001
ACAD
1000
TCW40_DEV_WIDTH
1002
{
1040
-3.0
1002
}
  0
ARC
  5
1BD
100
AcDbEntity
  8
CAD
  6
Continuous
 62
           5
100
AcDbCircle
 10
-29.077527573679
 20
6.919243177556
 30
0.0
 40
0.126504057949
100
AcDbArc
 50
-30.0
 51
29.605916088652
1001
ACAD
1000
TCW40_DEV_WIDTH
1002
{
1040
-3.0
1002
}
  0
ARC
  5
1BE
100
AcDbEntity
  8
CAD
  6
Continuous
 62
           5
100
AcDbCircle
 10
-29.238604784496
 20
7.012241148581
 30
0.0
 40
0.1875
100
AcDbArc
 50
-118.125
 51
-30.0
1001
ACAD
1000
TCW40_DEV_WIDTH
1002
{
1040
-3.0
1002
}
  0
ARC
  5
1BF
100
AcDbEntity
  8
CAD
  6
Continuous
 62
           5
100
AcDbCircle
 10
-28.966669293421
 20
6.855239119607
 30
0.0
 40
0.126504057949
100
AcDbArc
 50
90.394083911348
 51
150.0
1001
ACAD
1000
TCW40_DEV_WIDTH
1002
{
1040
-3.0
1002
}
  0
ARC
  5
1C0
100
AcDbEntity
  8
CAD
  6
Continuous
 62
           5
100
AcDbCircle
 10
-29.238604784496
 20
7.012241148581
 30
0.0
 40
0.1875
100
AcDbArc
 50
153.75
 51
241.874999999999
1001
ACAD
1000
TCW40_DEV_WIDTH
1002
{
1040
-3.0
1002
}
  0
ARC
  5
1C1
100
AcDbEntity
  8
CAD
  6
Continuous
 62
           5
100
AcDbCircle
 10
-29.520226464801
 20
7.151121592095
 30
0.0
 40
0.126504057949
100
AcDbArc
 50
-26.25
 51
33.355916088653
1001
ACAD
1000
TCW40_DEV_WIDTH
1002
{
1040
-3.0
1002
}
  0
ARC
  5
1C2
100
AcDbEntity
  8
CAD
  6
Continuous
 62
           5
100
AcDbCircle
 10
-29.687041155262
 20
7.233385493691
 30
0.0
 40
0.1875
100
AcDbArc
 50
-114.375
 51
-26.25
1001
ACAD
1000
TCW40_DEV_WIDTH
1002
{
1040
-3.0
1002
}
  0
ARC
  5
1C3
100
AcDbEntity
  8
CAD
  6
Continuous
 62
           5
100
AcDbCircle
 10
-29.405419474958
 20
7.094505050177
 30
0.0
 40
0.126504057949
100
AcDbArc
 50
94.144083911348
 51
153.75
1001
ACAD
1000
TCW40_DEV_WIDTH
1002
{
1040
-3.0
1002
}
  0
ARC
  5
1C4
100
AcDbEntity
  8
CAD
  6
Continuous
 62
           5
100
AcDbCircle
 10
-29.687041155262
 20
7.233385493691
 30
0.0
 40
0.1875
100
AcDbArc
 50
157.5
 51
245.625
1001
ACAD
1000
TCW40_DEV_WIDTH
1002
{
1040
-3.0
1002
}
  0
ARC
  5
1C5
100
AcDbEntity
  8
CAD
  6
Continuous
 62
           5
100
AcDbCircle
 10
-29.977143077527
 20
7.353549644363
 30
0.0
 40
0.126504057949
100
AcDbArc
 50
-22.5
 51
37.105916088653
1001
ACAD
1000
TCW40_DEV_WIDTH
1002
{
1040
-3.0
1002
}
  0
ARC
  5
1C6
100
AcDbEntity
  8
CAD
  6
Continuous
 62
           5
100
AcDbCircle
 10
-30.148980921518
 20
7.424727209873
 30
0.0
 40
0.1875
100
AcDbArc
 50
-110.625
 51
-22.499999999999
1001
ACAD
1000
TCW40_DEV_WIDTH
1002
{
1040
-3.0
1002
}
  0
ARC
  5
1C7
100
AcDbEntity
  8
CAD
  6
Continuous
 62
           5
100
AcDbCircle
 10
-29.858878999254
 20
7.304563059201
 30
0.0
 40
0.126504057949
100
AcDbArc
 50
97.894083911349
 51
157.5
1001
ACAD
1000
TCW40_DEV_WIDTH
1002
{
1040
-3.0
1002
}
  0
ARC
  5
1C8
100
AcDbEntity
  8
CAD
  6
Continuous
 62
           5
100
AcDbCircle
 10
-30.148980921518
 20
7.424727209873
 30
0.0
 40
0.1875
100
AcDbArc
 50
161.25
 51
249.375
1001
ACAD
1000
TCW40_DEV_WIDTH
1002
{
1040
-3.0
1002
}
  0
ARC
  5
1C9
100
AcDbEntity
  8
CAD
  6
Continuous
 62
           5
100
AcDbCircle
 10
-30.446320824773
 20
7.525660506363
 30
0.0
 40
0.126504057949
100
AcDbArc
 50
-18.75
 51
40.855916088652
1001
ACAD
1000
TCW40_DEV_WIDTH
1002
{
1040
-3.0
1002
}
  0
ARC
  5
1CA
100
AcDbEntity
  8
CAD
  6
Continuous
 62
           5
100
AcDbCircle
 10
-30.622445986266
 20
7.585446942525
 30
0.0
 40
0.1875
100
AcDbArc
 50
-106.875
 51
-18.75
1001
ACAD
1000
TCW40_DEV_WIDTH
1002
{
1040
-3.0
1002
}
  0
ARC
  5
1CB
100
AcDbEntity
  8
CAD
  6
Continuous
 62
           5
100
AcDbCircle
 10
-30.32510608301
 20
7.484513646035
 30
0.0
 40
0.126504057949
100
AcDbArc
 50
101.644083911348
 51
161.25
1001
ACAD
1000
TCW40_DEV_WIDTH
1002
{
1040
-3.0
1002
}
  0
ARC
  5
1CC
100
AcDbEntity
  8
CAD
  6
Continuous
 62
           5
100
AcDbCircle
 10
-30.622445986266
 20
7.585446942525
 30
0.0
 40
0.1875
100
AcDbArc
 50
165.0
 51
253.125
1001
ACAD
1000
TCW40_DEV_WIDTH
1002
{
1040
-3.0
1002
}
  0
ARC
  5
1CD
100
AcDbEntity
  8
CAD
  6
Continuous
 62
           5
100
AcDbCircle
 10
-30.925750615398
 20
7.666717172961
 30
0.0
 40
0.126504057949
100
AcDbArc
 50
-15.0
 51
44.605916088652
1001
ACAD
1000
TCW40_DEV_WIDTH
1002
{
1040
-3.0
1002
}
  0
ARC
  5
1CE
100
AcDbEntity
  8
CAD
  6
Continuous
 62
           5
100
AcDbCircle
 10
-31.10540889941
 20
7.714856465076
 30
0.0
 40
0.1875
100
AcDbArc
 50
-103.125
 51
-15.0
1001
ACAD
1000
TCW40_DEV_WIDTH
1002
{
1040
-3.0
1002
}
  0
ARC
  5
1CF
100
AcDbEntity
  8
CAD
  6
Continuous
 62
           5
100
AcDbCircle
 10
-30.802104270278
 20
7.633586234639
 30
0.0
 40
0.126504057949
100
AcDbArc
 50
105.394083911346
 51
165.0
1001
ACAD
1000
TCW40_DEV_WIDTH
1002
{
1040
-3.0
1002
}
  0
ARC
  5
1D0
100
AcDbEntity
  8
CAD
  6
Continuous
 62
           5
100
AcDbCircle
 10
-31.10540889941
 20
7.714856465076
 30
0.0
 40
0.1875
100
AcDbArc
 50
168.75
 51
256.875
1001
ACAD
1000
TCW40_DEV_WIDTH
1002
{
1040
-3.0
1002
}
  0
ARC
  5
1D1
100
AcDbEntity
  8
CAD
  6
Continuous
 62
           5
100
AcDbCircle
 10
-31.413379457433
 20
7.776115617856
 30
0.0
 40
0.126504057949
100
AcDbArc
 50
-11.25
 51
48.355916088653
1001
ACAD
1000
TCW40_DEV_WIDTH
1002
{
1040
-3.0
1002
}
  0
ARC
  5
1D2
100
AcDbEntity
  8
CAD
  6
Continuous
 62
           5
100
AcDbCircle
 10
-31.595801539612
 20
7.812401626084
 30
0.0
 40
0.1875
100
AcDbArc
 50
-99.375
 51
-11.25
1001
ACAD
1000
TCW40_DEV_WIDTH
1002
{
1040
-3.0
1002
}
  0
ARC
  5
1D3
100
AcDbEntity
  8
CAD
  6
Continuous
 62
           5
100
AcDbCircle
 10
-31.287830981589
 20
7.751142473305
 30
0.0
 40
0.126504057949
100
AcDbArc
 50
109.144083911349
 51
168.75
1001
ACAD
1000
TCW40_DEV_WIDTH
1002
{
1040
-3.0
1002
}
  0
ARC
  5
1D4
100
AcDbEntity
  8
CAD
  6
Continuous
 62
           5
100
AcDbCircle
 10
-31.595801539612
 20
7.812401626084
 30
0.0
 40
0.1875
100
AcDbArc
 50
172.5
 51
260.625000000001
1001
ACAD
1000
TCW40_DEV_WIDTH
1002
{
1040
-3.0
1002
}
  0
ARC
  5
1D5
100
AcDbEntity
  8
CAD
  6
Continuous
 62
           5
100
AcDbCircle
 10
-31.907119249316
 20
7.85338738011
 30
0.0
 40
0.126504057949
100
AcDbArc
 50
-7.5
 51
52.105916088653
1001
ACAD
1000
TCW40_DEV_WIDTH
1002
{
1040
-3.0
1002
}
  0
ARC
  5
1D6
100
AcDbEntity
  8
CAD
  6
Continuous
 62
           5
100
AcDbCircle
 10
-32.091523970299
 20
7.877664722194
 30
0.0
 40
0.1875
100
AcDbArc
 50
-95.625
 51
-7.5
1001
ACAD
1000
TCW40_DEV_WIDTH
1002
{
1040
-3.0
1002
}
  0
ARC
  5
1D7
100
AcDbEntity
  8
CAD
  6
Continuous
 62
           5
100
AcDbCircle
 10
-31.780206260595
 20
7.836678968168
 30
0.0
 40
0.126504057949
100
AcDbArc
 50
112.894083911348
 51
172.5
1001
ACAD
1000
TCW40_DEV_WIDTH
1002
{
1040
-3.0
1002
}
  0
ARC
  5
1D8
100
AcDbEntity
  8
CAD
  6
Continuous
 62
           5
100
AcDbCircle
 10
-32.091523970299
 20
7.877664722194
 30
0.0
 40
0.1875
100
AcDbArc
 50
176.25
 51
264.375
1001
ACAD
1000
TCW40_DEV_WIDTH
1002
{
1040
-3.0
1002
}
  0
ARC
  5
1D9
100
AcDbEntity
  8
CAD
  6
Continuous
 62
           5
100
AcDbCircle
 10
-32.404855721456
 20
7.898201570175
 30
0.0
 40
0.126504057949
100
AcDbArc
 50
-3.75
 51
55.855916088655
1001
ACAD
1000
TCW40_DEV_WIDTH
1002
{
1040
-3.0
1002
}
  0
ARC
  5
1DA
100
AcDbEntity
  8
CAD
  6
Continuous
 62
           5
100
AcDbCircle
 10
-32.590453431918
 20
7.910366286809
 30
0.0
 40
0.1875
100
AcDbArc
 50
-91.875
 51
-3.75
1001
ACAD
1000
TCW40_DEV_WIDTH
1002
{
1040
-3.0
1002
}
  0
ARC
  5
1DB
100
AcDbEntity
  8
CAD
  6
Continuous
 62
           5
100
AcDbCircle
 10
-32.277121680761
 20
7.889829438828
 30
0.0
 40
0.126504057949
100
AcDbArc
 50
116.644083911349
 51
176.25
1001
ACAD
1000
TCW40_DEV_WIDTH
1002
{
1040
-3.0
1002
}
  0
ARC
  5
1DC
100
AcDbEntity
  8
CAD
  6
Continuous
 62
           5
100
AcDbCircle
 10
-32.590453431918
 20
7.910366286809
 30
0.0
 40
0.1875
100
AcDbArc
 50
180.0
 51
268.125
1001
ACAD
1000
TCW40_DEV_WIDTH
1002
{
1040
-3.0
1002
}
  0
ARC
  5
1DD
100
AcDbEntity
  8
CAD
  6
Continuous
 62
           5
100
AcDbCircle
 10
-32.904457489867
 20
7.910366286809
 30
0.0
 40
0.126504057949
100
AcDbArc
 50
0.0
 51
59.605916088652
1001
ACAD
1000
TCW40_DEV_WIDTH
1002
{
1040
-3.0
1002
}
  0
ARC
  5
1DE
100
AcDbEntity
  8
CAD
  6
Continuous
 62
           5
100
AcDbCircle
 10
-33.090453431918
 20
7.910366286809
 30
0.0
 40
0.1875
100
AcDbArc
 50
-88.125
 51
0.0
1001
ACAD
1000
TCW40_DEV_WIDTH
1002
{
1040
-3.0
1002
}
  0
ARC
  5
1DF
100
AcDbEntity
  8
CAD
  6
Continuous
 62
           5
100
AcDbCircle
 10
-32.776449373969
 20
7.910366286809
 30
0.0
 40
0.126504057949
100
AcDbArc
 50
120.394083911348
 51
180.0
1001
ACAD
1000
TCW40_DEV_WIDTH
1002
{
1040
-3.0
1002
}
  0
ARC
  5
1E0
100
AcDbEntity
  8
CAD
  6
Continuous
 62
           5
100
AcDbCircle
 10
-33.090453431918
 20
7.910366286809
 30
0.0
 40
0.1875
100
AcDbArc
 50
-176.25
 51
-88.125
1001
ACAD
1000
TCW40_DEV_WIDTH
1002
{
1040
-3.0
1002
}
  0
ARC
  5
1E1
100
AcDbEntity
  8
CAD
  6
Continuous
 62
           5
100
AcDbCircle
 10
-33.403785183075
 20
7.889829438828
 30
0.0
 40
0.126504057949
100
AcDbArc
 50
3.75
 51
63.355916088652
1001
ACAD
1000
TCW40_DEV_WIDTH
1002
{
1040
-3.0
1002
}
  0
ARC
  5
1E2
100
AcDbEntity
  8
CAD
  6
Continuous
 62
           5
100
AcDbCircle
 10
-33.589382893537
 20
7.877664722194
 30
0.0
 40
0.1875
100
AcDbArc
 50
-84.375
 51
3.75
1001
ACAD
1000
TCW40_DEV_WIDTH
1002
{
1040
-3.0
1002
}
  0
ARC
  5
1E3
100
AcDbEntity
  8
CAD
  6
Continuous
 62
           5
100
AcDbCircle
 10
-33.27605114238
 20
7.898201570175
 30
0.0
 40
0.126504057949
100
AcDbArc
 50
124.144083911346
 51
183.75
1001
ACAD
1000
TCW40_DEV_WIDTH
1002
{
1040
-3.0
1002
}
  0
ARC
  5
1E4
100
AcDbEntity
  8
CAD
  6
Continuous
 62
           5
100
AcDbCircle
 10
-33.589382893537
 20
7.877664722194
 30
0.0
 40
0.1875
100
AcDbArc
 50
-172.5
 51
-84.375
1001
ACAD
1000
TCW40_DEV_WIDTH
1002
{
1040
-3.0
1002
}
  0
ARC
  5
1E5
100
AcDbEntity
  8
CAD
  6
Continuous
 62
           5
100
AcDbCircle
 10
-33.900700603241
 20
7.836678968168
 30
0.0
 40
0.126504057949
100
AcDbArc
 50
7.5
 51
67.105916088653
1001
ACAD
1000
TCW40_DEV_WIDTH
1002
{
1040
-3.0
1002
}
  0
ARC
  5
1E6
100
AcDbEntity
  8
CAD
  6
Continuous
 62
           5
100
AcDbCircle
 10
-34.085105324224
 20
7.812401626084
 30
0.0
 40
0.1875
100
AcDbArc
 50
-80.625000000001
 51
7.5
1001
ACAD
1000
TCW40_DEV_WIDTH
1002
{
1040
-3.0
1002
}
  0
ARC
  5
1E7
100
AcDbEntity
  8
CAD
  6
Continuous
 62
           5
100
AcDbCircle
 10
-33.77378761452
 20
7.85338738011
 30
0.0
 40
0.126504057949
100
AcDbArc
 50
127.894083911348
 51
187.5
1001
ACAD
1000
TCW40_DEV_WIDTH
1002
{
1040
-3.0
1002
}
  0
ARC
  5
1E8
100
AcDbEntity
  8
CAD
  6
Continuous
 62
           5
100
AcDbCircle
 10
-34.085105324224
 20
7.812401626084
 30
0.0
 40
0.1875
100
AcDbArc
 50
-168.75
 51
-80.625000000001
1001
ACAD
1000
TCW40_DEV_WIDTH
1002
{
1040
-3.0
1002
}
  0
ARC
  5
1E9
100
AcDbEntity
  8
CAD
  6
Continuous
 62
           5
100
AcDbCircle
 10
-34.393075882247
 20
7.751142473305
 30
0.0
 40
0.126504057949
100
AcDbArc
 50
11.25
 51
70.855916088653
1001
ACAD
1000
TCW40_DEV_WIDTH
1002
{
1040
-3.0
1002
}
  0
ARC
  5
1EA
100
AcDbEntity
  8
CAD
  6
Continuous
 62
           5
100
AcDbCircle
 10
-34.575497964426
 20
7.714856465076
 30
0.0
 40
0.1875
100
AcDbArc
 50
-76.875
 51
11.249999999999
1001
ACAD
1000
TCW40_DEV_WIDTH
1002
{
1040
-3.0
1002
}
  0
ARC
  5
1EB
100
AcDbEntity
  8
CAD
  6
Continuous
 62
           5
100
AcDbCircle
 10
-34.267527406403
 20
7.776115617856
 30
0.0
 40
0.126504057949
100
AcDbArc
 50
131.644083911347
 51
191.25
1001
ACAD
1000
TCW40_DEV_WIDTH
1002
{
1040
-3.0
1002
}
  0
ARC
  5
1EC
100
AcDbEntity
  8
CAD
  6
Continuous
 62
           5
100
AcDbCircle
 10
-34.575497964426
 20
7.714856465076
 30
0.0
 40
0.1875
100
AcDbArc
 50
-165.0
 51
-76.875
1001
ACAD
1000
TCW40_DEV_WIDTH
1002
{
1040
-3.0
1002
}
  0
ARC
  5
1ED
100
AcDbEntity
  8
CAD
  6
Continuous
 62
           5
100
AcDbCircle
 10
-34.878802593558
 20
7.633586234639
 30
0.0
 40
0.126504057949
100
AcDbArc
 50
15.0
 51
74.605916088652
1001
ACAD
1000
TCW40_DEV_WIDTH
1002
{
1040
-3.0
1002
}
  0
ARC
  5
1EE
100
AcDbEntity
  8
CAD
  6
Continuous
 62
           5
100
AcDbCircle
 10
-35.05846087757
 20
7.585446942525
 30
0.0
 40
0.1875
100
AcDbArc
 50
-73.124999999999
 51
15.0
1001
ACAD
1000
TCW40_DEV_WIDTH
1002
{
1040
-3.0
1002
}
  0
ARC
  5
1EF
100
AcDbEntity
  8
CAD
  6
Continuous
 62
           5
100
AcDbCircle
 10
-34.755156248438
 20
7.666717172961
 30
0.0
 40
0.126504057949
100
AcDbArc
 50
135.394083911348
 51
195.0
1001
ACAD
1000
TCW40_DEV_WIDTH
1002
{
1040
-3.0
1002
}
  0
ARC
  5
1F0
100
AcDbEntity
  8
CAD
  6
Continuous
 62
           5
100
AcDbCircle
 10
-35.05846087757
 20
7.585446942525
 30
0.0
 40
0.1875
100
AcDbArc
 50
-161.25
 51
-73.124999999999
1001
ACAD
1000
TCW40_DEV_WIDTH
1002
{
1040
-3.0
1002
}
  0
ARC
  5
1F1
100
AcDbEntity
  8
CAD
  6
Continuous
 62
           5
100
AcDbCircle
 10
-35.355800780826
 20
7.484513646035
 30
0.0
 40
0.126504057949
100
AcDbArc
 50
18.75
 51
78.355916088651
1001
ACAD
1000
TCW40_DEV_WIDTH
1002
{
1040
-3.0
1002
}
  0
ARC
  5
1F2
100
AcDbEntity
  8
CAD
  6
Continuous
 62
           5
100
AcDbCircle
 10
-35.531925942318
 20
7.424727209873
 30
0.0
 40
0.1875
100
AcDbArc
 50
-69.375000000001
 51
18.75
1001
ACAD
1000
TCW40_DEV_WIDTH
1002
{
1040
-3.0
1002
}
  0
ARC
  5
1F3
100
AcDbEntity
  8
CAD
  6
Continuous
 62
           5
100
AcDbCircle
 10
-35.234586039062
 20
7.525660506363
 30
0.0
 40
0.126504057949
100
AcDbArc
 50
139.144083911348
 51
198.75
1001
ACAD
1000
TCW40_DEV_WIDTH
1002
{
1040
-3.0
1002
}
  0
ARC
  5
1F4
100
AcDbEntity
  8
CAD
  6
Continuous
 62
           5
100
AcDbCircle
 10
-35.531925942318
 20
7.424727209873
 30
0.0
 40
0.1875
100
AcDbArc
 50
-157.5
 51
-69.375
1001
ACAD
1000
TCW40_DEV_WIDTH
1002
{
1040
-3.0
1002
}
  0
ARC
  5
1F5
100
AcDbEntity
  8
CAD
  6
Continuous
 62
           5
100
AcDbCircle
 10
-35.822027864582
 20
7.304563059201
 30
0.0
 40
0.126504057949
100
AcDbArc
 50
22.500000000001
 51
82.105916088653
1001
ACAD
1000
TCW40_DEV_WIDTH
1002
{
1040
-3.0
1002
}
  0
ARC
  5
1F6
100
AcDbEntity
  8
CAD
  6
Continuous
 62
           5
100
AcDbCircle
 10
-35.993865708574
 20
7.233385493691
 30
0.0
 40
0.1875
100
AcDbArc
 50
-65.625
 51
22.5
1001
ACAD
1000
TCW40_DEV_WIDTH
1002
{
1040
-3.0
1002
}
  0
ARC
  5
1F7
100
AcDbEntity
  8
CAD
  6
Continuous
 62
           5
100
AcDbCircle
 10
-35.703763786309
 20
7.353549644363
 30
0.0
 40
0.126504057949
100
AcDbArc
 50
142.894083911347
 51
202.500000000001
1001
ACAD
1000
TCW40_DEV_WIDTH
1002
{
1040
-3.0
1002
}
  0
ARC
  5
1F8
100
AcDbEntity
  8
CAD
  6
Continuous
 62
           5
100
AcDbCircle
 10
-35.993865708574
 20
7.233385493691
 30
0.0
 40
0.1875
100
AcDbArc
 50
-153.75
 51
-65.625
1001
ACAD
1000
TCW40_DEV_WIDTH
1002
{
1040
-3.0
1002
}
  0
ARC
  5
1F9
100
AcDbEntity
  8
CAD
  6
Continuous
 62
           5
100
AcDbCircle
 10
-36.275487388878
 20
7.094505050177
 30
0.0
 40
0.126504057949
100
AcDbArc
 50
26.25
 51
85.855916088653
1001
ACAD
1000
TCW40_DEV_WIDTH
1002
{
1040
-3.0
1002
}
  0
ARC
  5
1FA
100
AcDbEntity
  8
CAD
  6
Continuous
 62
           5
100
AcDbCircle
 10
-36.44230207934
 20
7.012241148581
 30
0.0
 40
0.1875
100
AcDbArc
 50
-61.875
 51
26.249999999999
1001
ACAD
1000
TCW40_DEV_WIDTH
1002
{
1040
-3.0
1002
}
  0
ARC
  5
1FB
100
AcDbEntity
  8
CAD
  6
Continuous
 62
           5
100
AcDbCircle
 10
-36.160680399035
 20
7.151121592095
 30
0.0
 40
0.126504057949
100
AcDbArc
 50
146.644083911347
 51
206.25
1001
ACAD
1000
TCW40_DEV_WIDTH
1002
{
1040
-3.0
1002
}
  0
ARC
  5
1FC
100
AcDbEntity
  8
CAD
  6
Continuous
 62
           5
100
AcDbCircle
 10
-36.44230207934
 20
7.012241148581
 30
0.0
 40
0.1875
100
AcDbArc
 50
-150.0
 51
-61.875
1001
ACAD
1000
TCW40_DEV_WIDTH
1002
{
1040
-3.0
1002
}
  0
ARC
  5
1FD
100
AcDbEntity
  8
CAD
  6
Continuous
 62
           5
100
AcDbCircle
 10
-36.714237570415
 20
6.855239119607
 30
0.0
 40
0.126504057949
100
AcDbArc
 50
30.0
 51
89.605916088652
1001
ACAD
1000
TCW40_DEV_WIDTH
1002
{
1040
-3.0
1002
}
  0
ARC
  5
1FE
100
AcDbEntity
  8
CAD
  6
Continuous
 62
           5
100
AcDbCircle
 10
-36.875314781232
 20
6.762241148581
 30
0.0
 40
0.1875
100
AcDbArc
 50
-58.125
 51
29.999999999999
1001
ACAD
1000
TCW40_DEV_WIDTH
1002
{
1040
-3.0
1002
}
  0
ARC
  5
1FF
100
AcDbEntity
  8
CAD
  6
Continuous
 62
           5
100
AcDbCircle
 10
-36.603379290157
 20
6.919243177556
 30
0.0
 40
0.126504057949
100
AcDbArc
 50
150.394083911347
 51
210.000000000001
1001
ACAD
1000
TCW40_DEV_WIDTH
1002
{
1040
-3.0
1002
}
  0
ARC
  5
200
100
AcDbEntity
  8
CAD
  6
Continuous
 62
           5
100
AcDbCircle
 10
-36.875314781232
 20
6.762241148581
 30
0.0
 40
0.1875
100
AcDbArc
 50
-146.25
 51
-58.125000000001
1001
ACAD
1000
TCW40_DEV_WIDTH
1002
{
1040
-3.0
1002
}
  0
ARC
  5
201
100
AcDbEntity
  8
CAD
  6
Continuous
 62
           5
100
AcDbCircle
 10
-37.136399613556
 20
6.587789840938
 30
0.0
 40
0.126504057949
100
AcDbArc
 50
33.75
 51
93.355916088652
1001
ACAD
1000
TCW40_DEV_WIDTH
1002
{
1040
-3.0
1002
}
  0
ARC
  5
202
100
AcDbEntity
  8
CAD
  6
Continuous
 62
           5
100
AcDbCircle
 10
-37.291049587383
 20
6.484456032071
 30
0.0
 40
0.1875
100
AcDbArc
 50
-54.375
 51
33.75
1001
ACAD
1000
TCW40_DEV_WIDTH
1002
{
1040
-3.0
1002
}
  0
ARC
  5
203
100
AcDbEntity
  8
CAD
  6
Continuous
 62
           5
100
AcDbCircle
 10
-37.029964755059
 20
6.658907339715
 30
0.0
 40
0.126504057949
100
AcDbArc
 50
154.144083911348
 51
213.75
1001
ACAD
1000
TCW40_DEV_WIDTH
1002
{
1040
-3.0
1002
}
  0
ARC
  5
204
100
AcDbEntity
  8
CAD
  6
Continuous
 62
           5
100
AcDbCircle
 10
-37.291049587383
 20
6.484456032071
 30
0.0
 40
0.1875
100
AcDbArc
 50
-142.5
 51
-54.375
1001
ACAD
1000
TCW40_DEV_WIDTH
1002
{
1040
-3.0
1002
}
  0
ARC
  5
205
100
AcDbEntity
  8
CAD
  6
Continuous
 62
           5
100
AcDbCircle
 10
-37.540165755622
 20
6.29330247304
 30
0.0
 40
0.126504057949
100
AcDbArc
 50
37.500000000001
 51
97.105916088652
1001
ACAD
1000
TCW40_DEV_WIDTH
1002
{
1040
-3.0
1002
}
  0
ARC
  5
206
100
AcDbEntity
  8
CAD
  6
Continuous
 62
           5
100
AcDbCircle
 10
-37.687726257529
 20
6.180075317567
 30
0.0
 40
0.1875
100
AcDbArc
 50
-50.624999999999
 51
37.500000000001
1001
ACAD
1000
TCW40_DEV_WIDTH
1002
{
1040
-3.0
1002
}
  0
ARC
  5
207
100
AcDbEntity
  8
CAD
  6
Continuous
 62
           5
100
AcDbCircle
 10
-37.43861008929
 20
6.371228876598
 30
0.0
 40
0.126504057949
100
AcDbArc
 50
157.894083911347
 51
217.500000000002
1001
ACAD
1000
TCW40_DEV_WIDTH
1002
{
1040
-3.0
1002
}
  0
ARC
  5
208
100
AcDbEntity
  8
CAD
  6
Continuous
 62
           5
100
AcDbCircle
 10
-37.687726257529
 20
6.180075317567
 30
0.0
 40
0.1875
100
AcDbArc
 50
-138.75
 51
-50.625000000001
1001
ACAD
1000
TCW40_DEV_WIDTH
1002
{
1040
-3.0
1002
}
  0
ARC
  5
209
100
AcDbEntity
  8
CAD
  6
Continuous
 62
           5
100
AcDbCircle
 10
-37.923807008005
 20
5.973038056034
 30
0.0
 40
0.126504057949
100
AcDbArc
 50
41.25
 51
100.855916088653
1001
ACAD
1000
TCW40_DEV_WIDTH
1002
{
1040
-3.0
1002
}
  0
ARC
  5
20A
100
AcDbEntity
  8
CAD
  6
Continuous
 62
           5
100
AcDbCircle
 10
-38.063646161268
 20
5.850402410017
 30
0.0
 40
0.1875
100
AcDbArc
 50
-46.875
 51
41.25
1001
ACAD
1000
TCW40_DEV_WIDTH
1002
{
1040
-3.0
1002
}
  0
ARC
  5
20B
100
AcDbEntity
  8
CAD
  6
Continuous
 62
           5
100
AcDbCircle
 10
-37.827565410793
 20
6.05743967155
 30
0.0
 40
0.126504057949
100
AcDbArc
 50
161.644083911348
 51
221.249999999999
1001
ACAD
1000
TCW40_DEV_WIDTH
1002
{
1040
-3.0
1002
}
  0
ARC
  5
20C
100
AcDbEntity
  8
CAD
  6
Continuous
 62
           5
100
AcDbCircle
 10
-38.063646161268
 20
5.850402410017
 30
0.0
 40
0.1875
100
AcDbArc
 50
-135.0
 51
-46.875000000001
1001
ACAD
1000
TCW40_DEV_WIDTH
1002
{
1040
-3.0
1002
}
  0
ARC
  5
20D
100
AcDbEntity
  8
CAD
  6
Continuous
 62
           5
100
AcDbCircle
 10
-38.285680559964
 20
5.628368011321
 30
0.0
 40
0.126504057949
100
AcDbArc
 50
45.0
 51
104.605916088653
1001
ACAD
1000
TCW40_DEV_WIDTH
1002
{
1040
-3.0
1002
}
  0
ARC
  5
20E
100
AcDbEntity
  8
CAD
  6
Continuous
 62
           5
100
AcDbCircle
 10
-38.417199551862
 20
5.496849019424
 30
0.0
 40
0.1875
100
AcDbArc
 50
-43.125
 51
44.999999999999
1001
ACAD
1000
TCW40_DEV_WIDTH
1002
{
1040
-3.0
1002
}
  0
ARC
  5
20F
100
AcDbEntity
  8
CAD
  6
Continuous
 62
           5
100
AcDbCircle
 10
-38.195165153166
 20
5.718883418119
 30
0.0
 40
0.126504057949
100
AcDbArc
 50
165.394083911348
 51
225.0
1001
ACAD
1000
TCW40_DEV_WIDTH
1002
{
1040
-3.0
1002
}
  0
ARC
  5
210
100
AcDbEntity
  8
CAD
  6
Continuous
 62
           5
100
AcDbCircle
 10
-38.417199551862
 20
5.496849019424
 30
0.0
 40
0.1875
100
AcDbArc
 50
-131.25
 51
-43.125
1001
ACAD
1000
TCW40_DEV_WIDTH
1002
{
1040
-3.0
1002
}
  0
ARC
  5
211
100
AcDbEntity
  8
CAD
  6
Continuous
 62
           5
100
AcDbCircle
 10
-38.624236813395
 20
5.260768268948
 30
0.0
 40
0.126504057949
100
AcDbArc
 50
48.750000000001
 51
108.355916088652
1001
ACAD
1000
TCW40_DEV_WIDTH
1002
{
1040
-3.0
1002
}
  0
ARC
  5
212
100
AcDbEntity
  8
CAD
  6
Continuous
 62
           5
100
AcDbCircle
 10
-38.746872459412
 20
5.120929115684
 30
0.0
 40
0.1875
100
AcDbArc
 50
-39.375
 51
48.75
1001
ACAD
1000
TCW40_DEV_WIDTH
1002
{
1040
-3.0
1002
}
  0
ARC
  5
213
100
AcDbEntity
  8
CAD
  6
Continuous
 62
           5
100
AcDbCircle
 10
-38.539835197879
 20
5.35700986616
 30
0.0
 40
0.126504057949
100
AcDbArc
 50
169.144083911347
 51
228.75
1001
ACAD
1000
TCW40_DEV_WIDTH
1002
{
1040
-3.0
1002
}
  0
ARC
  5
214
100
AcDbEntity
  8
CAD
  6
Continuous
 62
           5
100
AcDbCircle
 10
-38.746872459412
 20
5.120929115684
 30
0.0
 40
0.1875
100
AcDbArc
 50
-127.5
 51
-39.375000000001
1001
ACAD
1000
TCW40_DEV_WIDTH
1002
{
1040
-3.0
1002
}
  0
ARC
  5
215
100
AcDbEntity
  8
CAD
  6
Continuous
 62
           5
100
AcDbCircle
 10
-38.938026018443
 20
4.871812947446
 30
0.0
 40
0.126504057949
100
AcDbArc
 50
52.5
 51
112.10591608865
1001
ACAD
1000
TCW40_DEV_WIDTH
1002
{
1040
-3.0
1002
}
  0
ARC
  5
216
100
AcDbEntity
  8
CAD
  6
Continuous
 62
           5
100
AcDbCircle
 10
-39.051253173916
 20
4.724252445539
 30
0.0
 40
0.1875
100
AcDbArc
 50
-35.624999999999
 51
52.5
1001
ACAD
1000
TCW40_DEV_WIDTH
1002
{
1040
-3.0
1002
}
  0
ARC
  5
217
100
AcDbEntity
  8
CAD
  6
Continuous
 62
           5
100
AcDbCircle
 10
-38.860099614885
 20
4.973368613777
 30
0.0
 40
0.126504057949
100
AcDbArc
 50
172.894083911347
 51
232.499999999999
1001
ACAD
1000
TCW40_DEV_WIDTH
1002
{
1040
-3.0
1002
}
  0
ARC
  5
218
100
AcDbEntity
  8
CAD
  6
Continuous
 62
           5
100
AcDbCircle
 10
-39.051253173916
 20
4.724252445539
 30
0.0
 40
0.1875
100
AcDbArc
 50
-123.750000000001
 51
-35.625
1001
ACAD
1000
TCW40_DEV_WIDTH
1002
{
1040
-3.0
1002
}
  0
ARC
  5
219
100
AcDbEntity
  8
CAD
  6
Continuous
 62
           5
100
AcDbCircle
 10
-39.22570448156
 20
4.463167613215
 30
0.0
 40
0.126504057949
100
AcDbArc
 50
56.25
 51
115.855916088651
1001
ACAD
1000
TCW40_DEV_WIDTH
1002
{
1040
-3.0
1002
}
  0
ARC
  5
21A
100
AcDbEntity
  8
CAD
  6
Continuous
 62
           5
100
AcDbCircle
 10
-39.329038290426
 20
4.308517639387
 30
0.0
 40
0.1875
100
AcDbArc
 50
-31.875
 51
56.249999999999
1001
ACAD
1000
TCW40_DEV_WIDTH
1002
{
1040
-3.0
1002
}
  0
ARC
  5
21B
100
AcDbEntity
  8
CAD
  6
Continuous
 62
           5
100
AcDbCircle
 10
-39.154586982782
 20
4.569602471711
 30
0.0
 40
0.126504057949
100
AcDbArc
 50
176.644083911348
 51
236.249999999999
1001
ACAD
1000
TCW40_DEV_WIDTH
1002
{
1040
-3.0
1002
}
  0
ARC
  5
21C
100
AcDbEntity
  8
CAD
  6
Continuous
 62
           5
100
AcDbCircle
 10
-39.329038290426
 20
4.308517639387
 30
0.0
 40
0.1875
100
AcDbArc
 50
-120.0
 51
-31.875
1001
ACAD
1000
TCW40_DEV_WIDTH
1002
{
1040
-3.0
1002
}
  0
ARC
  5
21D
100
AcDbEntity
  8
CAD
  6
Continuous
 62
           5
100
AcDbCircle
 10
-39.4860403194
 20
4.036582148312
 30
0.0
 40
0.126504057949
100
AcDbArc
 50
59.999999999999
 51
119.605916088653
1001
ACAD
1000
TCW40_DEV_WIDTH
1002
{
1040
-3.0
1002
}
  0
ARC
  5
21E
100
AcDbEntity
  8
CAD
  6
Continuous
 62
           5
100
AcDbCircle
 10
-39.579038290426
 20
3.875504937495
 30
0.0
 40
0.1875
100
AcDbArc
 50
-28.125
 51
60.0
1001
ACAD
1000
TCW40_DEV_WIDTH
1002
{
1040
-3.0
1002
}
  0
ARC
  5
21F
100
AcDbEntity
  8
CAD
  6
Continuous
 62
           5
100
AcDbCircle
 10
-39.422036261452
 20
4.14744042857
 30
0.0
 40
0.126504057949
100
AcDbArc
 50
-179.605916088652
 51
-120.0
1001
ACAD
1000
TCW40_DEV_WIDTH
1002
{
1040
-3.0
1002
}
  0
ARC
  5
220
100
AcDbEntity
  8
CAD
  6
Continuous
 62
           5
100
AcDbCircle
 10
-39.579038290426
 20
3.875504937495
 30
0.0
 40
0.1875
100
AcDbArc
 50
-116.25
 51
-28.125
1001
ACAD
1000
TCW40_DEV_WIDTH
1002
{
1040
-3.0
1002
}
  0
ARC
  5
221
100
AcDbEntity
  8
CAD
  6
Continuous
 62
           5
100
AcDbCircle
 10
-39.71791873394
 20
3.59388325719
 30
0.0
 40
0.126504057949
100
AcDbArc
 50
63.75
 51
123.355916088653
1001
ACAD
1000
TCW40_DEV_WIDTH
1002
{
1040
-3.0
1002
}
  0
ARC
  5
222
100
AcDbEntity
  8
CAD
  6
Continuous
 62
           5
100
AcDbCircle
 10
-39.800182635535
 20
3.427068566729
 30
0.0
 40
0.1875
100
AcDbArc
 50
-24.375
 51
63.75
1001
ACAD
1000
TCW40_DEV_WIDTH
1002
{
1040
-3.0
1002
}
  0
ARC
  5
223
100
AcDbEntity
  8
CAD
  6
Continuous
 62
           5
100
AcDbCircle
 10
-39.661302192022
 20
3.708690247034
 30
0.0
 40
0.126504057949
100
AcDbArc
 50
-175.855916088652
 51
-116.25
1001
ACAD
1000
TCW40_DEV_WIDTH
1002
{
1040
-3.0
1002
}
  0
ARC
  5
224
100
AcDbEntity
  8
CAD
  6
Continuous
 62
           5
100
AcDbCircle
 10
-39.800182635535
 20
3.427068566729
 30
0.0
 40
0.1875
100
AcDbArc
 50
-112.500000000001
 51
-24.375
1001
ACAD
1000
TCW40_DEV_WIDTH
1002
{
1040
-3.0
1002
}
  0
ARC
  5
225
100
AcDbEntity
  8
CAD
  6
Continuous
 62
           5
100
AcDbCircle
 10
-39.920346786208
 20
3.136966644464
 30
0.0
 40
0.126504057949
100
AcDbArc
 50
67.499999999998
 51
127.105916088653
1001
ACAD
1000
TCW40_DEV_WIDTH
1002
{
1040
-3.0
1002
}
  0
ARC
  5
226
100
AcDbEntity
  8
CAD
  6
Continuous
 62
           5
100
AcDbCircle
 10
-39.991524351718
 20
2.965128800473
 30
0.0
 40
0.1875
100
AcDbArc
 50
-20.625
 51
67.499999999999
1001
ACAD
1000
TCW40_DEV_WIDTH
1002
{
1040
-3.0
1002
}
  0
ARC
  5
227
100
AcDbEntity
  8
CAD
  6
Continuous
 62
           5
100
AcDbCircle
 10
-39.871360201046
 20
3.255230722737
 30
0.0
 40
0.126504057949
100
AcDbArc
 50
-172.105916088652
 51
-112.500000000002
1001
ACAD
1000
TCW40_DEV_WIDTH
1002
{
1040
-3.0
1002
}
  0
ARC
  5
228
100
AcDbEntity
  8
CAD
  6
Continuous
 62
           5
100
AcDbCircle
 10
-39.991524351718
 20
2.965128800473
 30
0.0
 40
0.1875
100
AcDbArc
 50
-108.75
 51
-20.625
1001
ACAD
1000
TCW40_DEV_WIDTH
1002
{
1040
-3.0
1002
}
  0
ARC
  5
229
100
AcDbEntity
  8
CAD
  6
Continuous
 62
           5
100
AcDbCircle
 10
-40.092457648208
 20
2.667788897218
 30
0.0
 40
0.126504057949
100
AcDbArc
 50
71.25
 51
130.855916088652
1001
ACAD
1000
TCW40_DEV_WIDTH
1002
{
1040
-3.0
1002
}
  0
ARC
  5
22A
100
AcDbEntity
  8
CAD
  6
Continuous
 62
           5
100
AcDbCircle
 10
-40.15224408437
 20
2.491663735726
 30
0.0
 40
0.1875
100
AcDbArc
 50
-16.875
 51
71.25
1001
ACAD
1000
TCW40_DEV_WIDTH
1002
{
1040
-3.0
1002
}
  0
ARC
  5
22B
100
AcDbEntity
  8
CAD
  6
Continuous
 62
           5
100
AcDbCircle
 10
-40.051310787879
 20
2.789003638981
 30
0.0
 40
0.126504057949
100
AcDbArc
 50
-168.355916088653
 51
-108.750000000001
1001
ACAD
1000
TCW40_DEV_WIDTH
1002
{
1040
-3.0
1002
}
  0
ARC
  5
22C
100
AcDbEntity
  8
CAD
  6
Continuous
 62
           5
100
AcDbCircle
 10
-40.15224408437
 20
2.491663735726
 30
0.0
 40
0.1875
100
AcDbArc
 50
-105.000000000001
 51
-16.875
1001
ACAD
1000
TCW40_DEV_WIDTH
1002
{
1040
-3.0
1002
}
  0
ARC
  5
22D
100
AcDbEntity
  8
CAD
  6
Continuous
 62
           5
100
AcDbCircle
 10
-40.233514314806
 20
2.188359106593
 30
0.0
 40
0.126504057949
100
AcDbArc
 50
75.0
 51
134.605916088653
1001
ACAD
1000
TCW40_DEV_WIDTH
1002
{
1040
-3.0
1002
}
  0
ARC
  5
22E
100
AcDbEntity
  8
CAD
  6
Continuous
 62
           5
100
AcDbCircle
 10
-40.281653606921
 20
2.008700822581
 30
0.0
 40
0.1875
100
AcDbArc
 50
-13.125
 51
74.999999999999
1001
ACAD
1000
TCW40_DEV_WIDTH
1002
{
1040
-3.0
1002
}
  0
ARC
  5
22F
100
AcDbEntity
  8
CAD
  6
Continuous
 62
           5
100
AcDbCircle
 10
-40.200383376484
 20
2.312005451713
 30
0.0
 40
0.126504057949
100
AcDbArc
 50
-164.605916088653
 51
-105.0
1001
ACAD
1000
TCW40_DEV_WIDTH
1002
{
1040
-3.0
1002
}
  0
ARC
  5
230
100
AcDbEntity
  8
CAD
  6
Continuous
 62
           5
100
AcDbCircle
 10
-40.281653606921
 20
2.008700822581
 30
0.0
 40
0.1875
100
AcDbArc
 50
-101.25
 51
-13.125
1001
ACAD
1000
TCW40_DEV_WIDTH
1002
{
1040
-3.0
1002
}
  0
ARC
  5
231
100
AcDbEntity
  8
CAD
  6
Continuous
 62
           5
100
AcDbCircle
 10
-40.3429127597
 20
1.700730264558
 30
0.0
 40
0.126504057949
100
AcDbArc
 50
78.75
 51
138.35591608865
1001
ACAD
1000
TCW40_DEV_WIDTH
1002
{
1040
-3.0
1002
}
  0
ARC
  5
232
100
AcDbEntity
  8
CAD
  6
Continuous
 62
           5
100
AcDbCircle
 10
-40.379198767929
 20
1.518308182379
 30
0.0
 40
0.1875
100
AcDbArc
 50
-9.375
 51
78.75
1001
ACAD
1000
TCW40_DEV_WIDTH
1002
{
1040
-3.0
1002
}
  0
ARC
  5
233
100
AcDbEntity
  8
CAD
  6
Continuous
 62
           5
100
AcDbCircle
 10
-40.317939615149
 20
1.826278740402
 30
0.0
 40
0.126504057949
100
AcDbArc
 50
-160.855916088652
 51
-101.25
1001
ACAD
1000
TCW40_DEV_WIDTH
1002
{
1040
-3.0
1002
}
  0
ARC
  5
234
100
AcDbEntity
  8
CAD
  6
Continuous
 62
           5
100
AcDbCircle
 10
-40.379198767929
 20
1.518308182379
 30
0.0
 40
0.1875
100
AcDbArc
 50
-97.500000000001
 51
-9.375
1001
ACAD
1000
TCW40_DEV_WIDTH
1002
{
1040
-3.0
1002
}
  0
ARC
  5
235
100
AcDbEntity
  8
CAD
  6
Continuous
 62
           5
100
AcDbCircle
 10
-40.420184521955
 20
1.206990472676
 30
0.0
 40
0.126504057949
100
AcDbArc
 50
82.5
 51
142.105916088652
1001
ACAD
1000
TCW40_DEV_WIDTH
1002
{
1040
-3.0
1002
}
  0
ARC
  5
236
100
AcDbEntity
  8
CAD
  6
Continuous
 62
           5
100
AcDbCircle
 10
-40.444461864039
 20
1.022585751693
 30
0.0
 40
0.1875
100
AcDbArc
 50
-5.625
 51
82.499999999999
1001
ACAD
1000
TCW40_DEV_WIDTH
1002
{
1040
-3.0
1002
}
  0
ARC
  5
237
100
AcDbEntity
  8
CAD
  6
Continuous
 62
           5
100
AcDbCircle
 10
-40.403476110013
 20
1.333903461396
 30
0.0
 40
0.126504057949
100
AcDbArc
 50
-157.105916088652
 51
-97.5
1001
ACAD
1000
TCW40_DEV_WIDTH
1002
{
1040
-3.0
1002
}
  0
ARC
  5
238
100
AcDbEntity
  8
CAD
  6
Continuous
 62
           5
100
AcDbCircle
 10
-40.444461864039
 20
1.022585751693
 30
0.0
 40
0.1875
100
AcDbArc
 50
-93.749999999999
 51
-5.625
1001
ACAD
1000
TCW40_DEV_WIDTH
1002
{
1040
-3.0
1002
}
  0
ARC
  5
239
100
AcDbEntity
  8
CAD
  6
Continuous
 62
           5
100
AcDbCircle
 10
-40.46499871202
 20
0.709254000535
 30
0.0
 40
0.126504057949
100
AcDbArc
 50
86.25
 51
145.855916088653
1001
ACAD
1000
TCW40_DEV_WIDTH
1002
{
1040
-3.0
1002
}
  0
ARC
  5
23A
100
AcDbEntity
  8
CAD
  6
Continuous
 62
           5
100
AcDbCircle
 10
-40.477163428654
 20
0.523656290073
 30
0.0
 40
0.1875
100
AcDbArc
 50
-1.875
 51
86.250000000001
1001
ACAD
1000
TCW40_DEV_WIDTH
1002
{
1040
-3.0
1002
}
  0
ARC
  5
23B
100
AcDbEntity
  8
CAD
  6
Continuous
 62
           5
100
AcDbCircle
 10
-40.456626580673
 20
0.836988041231
 30
0.0
 40
0.126504057949
100
AcDbArc
 50
-153.355916088652
 51
-93.75
1001
ACAD
1000
TCW40_DEV_WIDTH
1002
{
1040
-3.0
1002
}
  0
ARC
  5
23C
100
AcDbEntity
  8
CAD
  6
Continuous
 62
           5
100
AcDbCircle
 10
-40.477163428654
 20
0.523656290073
 30
0.0
 40
0.1875
100
AcDbArc
 50
-90.0
 51
-1.875
1001
ACAD
1000
TCW40_DEV_WIDTH
1002
{
1040
-3.0
1002
}
  0
ARC
  5
23D
100
AcDbEntity
  8
CAD
  6
Continuous
 62
           5
100
AcDbCircle
 10
-40.477163428654
 20
0.209652232124
 30
0.0
 40
0.126504057949
100
AcDbArc
 50
90.0
 51
149.605916088652
1001
ACAD
1000
TCW40_DEV_WIDTH
1002
{
1040
-3.0
1002
}
  0
ARC
  5
23E
100
AcDbEntity
  8
CAD
  6
Continuous
 62
           5
100
AcDbCircle
 10
-40.477163428654
 20
0.023656290073
 30
0.0
 40
0.1875
100
AcDbArc
 50
1.875
 51
90.0
1001
ACAD
1000
TCW40_DEV_WIDTH
1002
{
1040
-3.0
1002
}
  0
ARC
  5
23F
100
AcDbEntity
  8
CAD
  6
Continuous
 62
           5
100
AcDbCircle
 10
-40.477163428654
 20
0.337660348022
 30
0.0
 40
0.126504057949
100
AcDbArc
 50
-149.605916088652
 51
-90.0
1001
ACAD
1000
TCW40_DEV_WIDTH
1002
{
1040
-3.0
1002
}
  0
ARC
  5
240
100
AcDbEntity
  8
CAD
  6
Continuous
 62
           5
100
AcDbCircle
 10
-40.477163428654
 20
0.023656290073
 30
0.0
 40
0.1875
100
AcDbArc
 50
-86.250000000001
 51
1.875
1001
ACAD
1000
TCW40_DEV_WIDTH
1002
{
1040
-3.0
1002
}
  0
ARC
  5
241
100
AcDbEntity
  8
CAD
  6
Continuous
 62
           5
100
AcDbCircle
 10
-40.456626580673
 20
-0.289675461084
 30
0.0
 40
0.126504057949
100
AcDbArc
 50
93.75
 51
153.355916088651
1001
ACAD
1000
TCW40_DEV_WIDTH
1002
{
1040
-3.0
1002
}
  0
ARC
  5
242
100
AcDbEntity
  8
CAD
  6
Continuous
 62
           5
100
AcDbCircle
 10
-40.444461864039
 20
-0.475273171546
 30
0.0
 40
0.1875
100
AcDbArc
 50
5.625
 51
93.749999999999
1001
ACAD
1000
TCW40_DEV_WIDTH
1002
{
1040
-3.0
1002
}
  0
ARC
  5
243
100
AcDbEntity
  8
CAD
  6
Continuous
 62
           5
100
AcDbCircle
 10
-40.46499871202
 20
-0.161941420389
 30
0.0
 40
0.126504057949
100
AcDbArc
 50
-145.855916088654
 51
-86.25
1001
ACAD
1000
TCW40_DEV_WIDTH
1002
{
1040
-3.0
1002
}
  0
ARC
  5
244
100
AcDbEntity
  8
CAD
  6
Continuous
 62
           5
100
AcDbCircle
 10
-40.444461864039
 20
-0.475273171546
 30
0.0
 40
0.1875
100
AcDbArc
 50
-82.499999999999
 51
5.625
1001
ACAD
1000
TCW40_DEV_WIDTH
1002
{
1040
-3.0
1002
}
  0
ARC
  5
245
100
AcDbEntity
  8
CAD
  6
Continuous
 62
           5
100
AcDbCircle
 10
-40.403476110013
 20
-0.78659088125
 30
0.0
 40
0.126504057949
100
AcDbArc
 50
97.5
 51
157.105916088651
1001
ACAD
1000
TCW40_DEV_WIDTH
1002
{
1040
-3.0
1002
}
  0
ARC
  5
246
100
AcDbEntity
  8
CAD
  6
Continuous
 62
           5
100
AcDbCircle
 10
-40.379198767929
 20
-0.970995602233
 30
0.0
 40
0.1875
100
AcDbArc
 50
9.375
 51
97.500000000001
1001
ACAD
1000
TCW40_DEV_WIDTH
1002
{
1040
-3.0
1002
}
  0
ARC
  5
247
100
AcDbEntity
  8
CAD
  6
Continuous
 62
           5
100
AcDbCircle
 10
-40.420184521955
 20
-0.659677892529
 30
0.0
 40
0.126504057949
100
AcDbArc
 50
-142.105916088652
 51
-82.5
1001
ACAD
1000
TCW40_DEV_WIDTH
1002
{
1040
-3.0
1002
}
  0
ARC
  5
248
100
AcDbEntity
  8
CAD
  6
Continuous
 62
           5
100
AcDbCircle
 10
-40.379198767929
 20
-0.970995602233
 30
0.0
 40
0.1875
100
AcDbArc
 50
-78.75
 51
9.375
1001
ACAD
1000
TCW40_DEV_WIDTH
1002
{
1040
-3.0
1002
}
  0
ARC
  5
249
100
AcDbEntity
  8
CAD
  6
Continuous
 62
           5
100
AcDbCircle
 10
-40.317939615149
 20
-1.278966160256
 30
0.0
 40
0.126504057949
100
AcDbArc
 50
101.25
 51
160.855916088652
1001
ACAD
1000
TCW40_DEV_WIDTH
1002
{
1040
-3.0
1002
}
  0
ARC
  5
24A
100
AcDbEntity
  8
CAD
  6
Continuous
 62
           5
100
AcDbCircle
 10
-40.281653606921
 20
-1.461388242435
 30
0.0
 40
0.1875
100
AcDbArc
 50
13.125
 51
101.25
1001
ACAD
1000
TCW40_DEV_WIDTH
1002
{
1040
-3.0
1002
}
  0
ARC
  5
24B
100
AcDbEntity
  8
CAD
  6
Continuous
 62
           5
100
AcDbCircle
 10
-40.3429127597
 20
-1.153417684412
 30
0.0
 40
0.126504057949
100
AcDbArc
 50
-138.355916088654
 51
-78.75
1001
ACAD
1000
TCW40_DEV_WIDTH
1002
{
1040
-3.0
1002
}
  0
ARC
  5
24C
100
AcDbEntity
  8
CAD
  6
Continuous
 62
           5
100
AcDbCircle
 10
-40.281653606921
 20
-1.461388242435
 30
0.0
 40
0.1875
100
AcDbArc
 50
-74.999999999999
 51
13.125
1001
ACAD
1000
TCW40_DEV_WIDTH
1002
{
1040
-3.0
1002
}
  0
ARC
  5
24D
100
AcDbEntity
  8
CAD
  6
Continuous
 62
           5
100
AcDbCircle
 10
-40.200383376484
 20
-1.764692871567
 30
0.0
 40
0.126504057949
100
AcDbArc
 50
105.0
 51
164.605916088653
1001
ACAD
1000
TCW40_DEV_WIDTH
1002
{
1040
-3.0
1002
}
  0
ARC
  5
24E
100
AcDbEntity
  8
CAD
  6
Continuous
 62
           5
100
AcDbCircle
 10
-40.15224408437
 20
-1.944351155579
 30
0.0
 40
0.1875
100
AcDbArc
 50
16.875
 51
105.000000000001
1001
ACAD
1000
TCW40_DEV_WIDTH
1002
{
1040
-3.0
1002
}
  0
ARC
  5
24F
100
AcDbEntity
  8
CAD
  6
Continuous
 62
           5
100
AcDbCircle
 10
-40.233514314806
 20
-1.641046526447
 30
0.0
 40
0.126504057949
100
AcDbArc
 50
-134.605916088653
 51
-75.0
1001
ACAD
1000
TCW40_DEV_WIDTH
1002
{
1040
-3.0
1002
}
  0
ARC
  5
250
100
AcDbEntity
  8
CAD
  6
Continuous
 62
           5
100
AcDbCircle
 10
-40.15224408437
 20
-1.944351155579
 30
0.0
 40
0.1875
100
AcDbArc
 50
-71.25
 51
16.875
1001
ACAD
1000
TCW40_DEV_WIDTH
1002
{
1040
-3.0
1002
}
  0
ARC
  5
251
100
AcDbEntity
  8
CAD
  6
Continuous
 62
           5
100
AcDbCircle
 10
-40.051310787879
 20
-2.241691058835
 30
0.0
 40
0.126504057949
100
AcDbArc
 50
108.750000000001
 51
168.355916088652
1001
ACAD
1000
TCW40_DEV_WIDTH
1002
{
1040
-3.0
1002
}
  0
ARC
  5
252
100
AcDbEntity
  8
CAD
  6
Continuous
 62
           5
100
AcDbCircle
 10
-39.991524351718
 20
-2.417816220327
 30
0.0
 40
0.1875
100
AcDbArc
 50
20.625
 51
108.749999999999
1001
ACAD
1000
TCW40_DEV_WIDTH
1002
{
1040
-3.0
1002
}
  0
ARC
  5
253
100
AcDbEntity
  8
CAD
  6
Continuous
 62
           5
100
AcDbCircle
 10
-40.092457648208
 20
-2.120476317071
 30
0.0
 40
0.126504057949
100
AcDbArc
 50
-130.855916088653
 51
-71.249999999999
1001
ACAD
1000
TCW40_DEV_WIDTH
1002
{
1040
-3.0
1002
}
  0
ARC
  5
254
100
AcDbEntity
  8
CAD
  6
Continuous
 62
           5
100
AcDbCircle
 10
-39.991524351718
 20
-2.417816220327
 30
0.0
 40
0.1875
100
AcDbArc
 50
-67.499999999999
 51
20.625
1001
ACAD
1000
TCW40_DEV_WIDTH
1002
{
1040
-3.0
1002
}
  0
ARC
  5
255
100
AcDbEntity
  8
CAD
  6
Continuous
 62
           5
100
AcDbCircle
 10
-39.871360201046
 20
-2.707918142591
 30
0.0
 40
0.126504057949
100
AcDbArc
 50
112.500000000002
 51
172.105916088652
1001
ACAD
1000
TCW40_DEV_WIDTH
1002
{
1040
-3.0
1002
}
  0
ARC
  5
256
100
AcDbEntity
  8
CAD
  6
Continuous
 62
           5
100
AcDbCircle
 10
-39.800182635535
 20
-2.879755986582
 30
0.0
 40
0.1875
100
AcDbArc
 50
24.375
 51
112.500000000001
1001
ACAD
1000
TCW40_DEV_WIDTH
1002
{
1040
-3.0
1002
}
  0
ARC
  5
257
100
AcDbEntity
  8
CAD
  6
Continuous
 62
           5
100
AcDbCircle
 10
-39.920346786208
 20
-2.589654064318
 30
0.0
 40
0.126504057949
100
AcDbArc
 50
-127.105916088653
 51
-67.499999999998
1001
ACAD
1000
TCW40_DEV_WIDTH
1002
{
1040
-3.0
1002
}
  0
ARC
  5
258
100
AcDbEntity
  8
CAD
  6
Continuous
 62
           5
100
AcDbCircle
 10
-39.800182635535
 20
-2.879755986582
 30
0.0
 40
0.1875
100
AcDbArc
 50
-63.75
 51
24.375
1001
ACAD
1000
TCW40_DEV_WIDTH
1002
{
1040
-3.0
1002
}
  0
ARC
  5
259
100
AcDbEntity
  8
CAD
  6
Continuous
 62
           5
100
AcDbCircle
 10
-39.661302192022
 20
-3.161377666887
 30
0.0
 40
0.126504057949
100
AcDbArc
 50
116.25
 51
175.855916088652
1001
ACAD
1000
TCW40_DEV_WIDTH
1002
{
1040
-3.0
1002
}
  0
ARC
  5
25A
100
AcDbEntity
  8
CAD
  6
Continuous
 62
           5
100
AcDbCircle
 10
-39.579038290426
 20
-3.328192357349
 30
0.0
 40
0.1875
100
AcDbArc
 50
28.125
 51
116.250000000001
1001
ACAD
1000
TCW40_DEV_WIDTH
1002
{
1040
-3.0
1002
}
  0
ARC
  5
25B
100
AcDbEntity
  8
CAD
  6
Continuous
 62
           5
100
AcDbCircle
 10
-39.71791873394
 20
-3.046570677044
 30
0.0
 40
0.126504057949
100
AcDbArc
 50
-123.355916088653
 51
-63.750000000001
1001
ACAD
1000
TCW40_DEV_WIDTH
1002
{
1040
-3.0
1002
}
  0
ARC
  5
25C
100
AcDbEntity
  8
CAD
  6
Continuous
 62
           5
100
AcDbCircle
 10
-39.579038290426
 20
-3.328192357349
 30
0.0
 40
0.1875
100
AcDbArc
 50
-60.0
 51
28.125
1001
ACAD
1000
TCW40_DEV_WIDTH
1002
{
1040
-3.0
1002
}
  0
ARC
  5
25D
100
AcDbEntity
  8
CAD
  6
Continuous
 62
           5
100
AcDbCircle
 10
-39.422036261452
 20
-3.600127848424
 30
0.0
 40
0.126504057949
100
AcDbArc
 50
120.000000000001
 51
179.605916088652
1001
ACAD
1000
TCW40_DEV_WIDTH
1002
{
1040
-3.0
1002
}
  0
ARC
  5
25E
100
AcDbEntity
  8
CAD
  6
Continuous
 62
           5
100
AcDbCircle
 10
-39.329038290426
 20
-3.761205059241
 30
0.0
 40
0.1875
100
AcDbArc
 50
31.875
 51
120.0
1001
ACAD
1000
TCW40_DEV_WIDTH
1002
{
1040
-3.0
1002
}
  0
ARC
  5
25F
100
AcDbEntity
  8
CAD
  6
Continuous
 62
           5
100
AcDbCircle
 10
-39.4860403194
 20
-3.489269568166
 30
0.0
 40
0.126504057949
100
AcDbArc
 50
-119.605916088653
 51
-60.0
1001
ACAD
1000
TCW40_DEV_WIDTH
1002
{
1040
-3.0
1002
}
  0
ARC
  5
260
100
AcDbEntity
  8
CAD
  6
Continuous
 62
           5
100
AcDbCircle
 10
-39.329038290426
 20
-3.761205059241
 30
0.0
 40
0.1875
100
AcDbArc
 50
-56.249999999999
 51
31.875
1001
ACAD
1000
TCW40_DEV_WIDTH
1002
{
1040
-3.0
1002
}
  0
ARC
  5
261
100
AcDbEntity
  8
CAD
  6
Continuous
 62
           5
100
AcDbCircle
 10
-39.154586982782
 20
-4.022289891565
 30
0.0
 40
0.126504057949
100
AcDbArc
 50
123.750000000001
 51
183.355916088653
1001
ACAD
1000
TCW40_DEV_WIDTH
1002
{
1040
-3.0
1002
}
  0
ARC
  5
262
100
AcDbEntity
  8
CAD
  6
Continuous
 62
           5
100
AcDbCircle
 10
-39.051253173916
 20
-4.176939865392
 30
0.0
 40
0.1875
100
AcDbArc
 50
35.625
 51
123.750000000001
1001
ACAD
1000
TCW40_DEV_WIDTH
1002
{
1040
-3.0
1002
}
  0
ARC
  5
263
100
AcDbEntity
  8
CAD
  6
Continuous
 62
           5
100
AcDbCircle
 10
-39.22570448156
 20
-3.915855033068
 30
0.0
 40
0.126504057949
100
AcDbArc
 50
-115.855916088652
 51
-56.249999999999
1001
ACAD
1000
TCW40_DEV_WIDTH
1002
{
1040
-3.0
1002
}
  0
ARC
  5
264
100
AcDbEntity
  8
CAD
  6
Continuous
 62
           5
100
AcDbCircle
 10
-39.051253173916
 20
-4.176939865392
 30
0.0
 40
0.1875
100
AcDbArc
 50
-52.5
 51
35.625
1001
ACAD
1000
TCW40_DEV_WIDTH
1002
{
1040
-3.0
1002
}
  0
ARC
  5
265
100
AcDbEntity
  8
CAD
  6
Continuous
 62
           5
100
AcDbCircle
 10
-38.860099614885
 20
-4.426056033631
 30
0.0
 40
0.126504057949
100
AcDbArc
 50
127.5
 51
187.105916088653
1001
ACAD
1000
TCW40_DEV_WIDTH
1002
{
1040
-3.0
1002
}
  0
ARC
  5
266
100
AcDbEntity
  8
CAD
  6
Continuous
 62
           5
100
AcDbCircle
 10
-38.746872459412
 20
-4.573616535538
 30
0.0
 40
0.1875
100
AcDbArc
 50
39.375
 51
127.500000000001
1001
ACAD
1000
TCW40_DEV_WIDTH
1002
{
1040
-3.0
1002
}
  0
ARC
  5
267
100
AcDbEntity
  8
CAD
  6
Continuous
 62
           5
100
AcDbCircle
 10
-38.938026018443
 20
-4.324500367299
 30
0.0
 40
0.126504057949
100
AcDbArc
 50
-112.105916088651
 51
-52.499999999999
1001
ACAD
1000
TCW40_DEV_WIDTH
1002
{
1040
-3.0
1002
}
  0
ARC
  5
268
100
AcDbEntity
  8
CAD
  6
Continuous
 62
           5
100
AcDbCircle
 10
-38.746872459412
 20
-4.573616535538
 30
0.0
 40
0.1875
100
AcDbArc
 50
-48.75
 51
39.375
1001
ACAD
1000
TCW40_DEV_WIDTH
1002
{
1040
-3.0
1002
}
  0
ARC
  5
269
100
AcDbEntity
  8
CAD
  6
Continuous
 62
           5
100
AcDbCircle
 10
-38.539835197879
 20
-4.809697286014
 30
0.0
 40
0.126504057949
100
AcDbArc
 50
131.249999999999
 51
190.855916088653
1001
ACAD
1000
TCW40_DEV_WIDTH
1002
{
1040
-3.0
1002
}
  0
ARC
  5
26A
100
AcDbEntity
  8
CAD
  6
Continuous
 62
           5
100
AcDbCircle
 10
-38.417199551862
 20
-4.949536439277
 30
0.0
 40
0.1875
100
AcDbArc
 50
43.125
 51
131.25
1001
ACAD
1000
TCW40_DEV_WIDTH
1002
{
1040
-3.0
1002
}
  0
ARC
  5
26B
100
AcDbEntity
  8
CAD
  6
Continuous
 62
           5
100
AcDbCircle
 10
-38.624236813395
 20
-4.713455688801
 30
0.0
 40
0.126504057949
100
AcDbArc
 50
-108.355916088652
 51
-48.75
1001
ACAD
1000
TCW40_DEV_WIDTH
1002
{
1040
-3.0
1002
}
  0
ARC
  5
26C
100
AcDbEntity
  8
CAD
  6
Continuous
 62
           5
100
AcDbCircle
 10
-38.417199551862
 20
-4.949536439277
 30
0.0
 40
0.1875
100
AcDbArc
 50
-45.0
 51
43.125000000001
1001
ACAD
1000
TCW40_DEV_WIDTH
1002
{
1040
-3.0
1002
}
  0
ARC
  5
26D
100
AcDbEntity
  8
CAD
  6
Continuous
 62
           5
100
AcDbCircle
 10
-38.195165153166
 20
-5.171570837973
 30
0.0
 40
0.126504057949
100
AcDbArc
 50
135.0
 51
194.605916088652
1001
ACAD
1000
TCW40_DEV_WIDTH
1002
{
1040
-3.0
1002
}
  0
ARC
  5
26E
100
AcDbEntity
  8
CAD
  6
Continuous
 62
           5
100
AcDbCircle
 10
-38.063646161268
 20
-5.303089829871
 30
0.0
 40
0.1875
100
AcDbArc
 50
46.875
 51
135.000000000001
1001
ACAD
1000
TCW40_DEV_WIDTH
1002
{
1040
-3.0
1002
}
  0
ARC
  5
26F
100
AcDbEntity
  8
CAD
  6
Continuous
 62
           5
100
AcDbCircle
 10
-38.285680559964
 20
-5.081055431175
 30
0.0
 40
0.126504057949
100
AcDbArc
 50
-104.605916088653
 51
-45.0
1001
ACAD
1000
TCW40_DEV_WIDTH
1002
{
1040
-3.0
1002
}
  0
ARC
  5
270
100
AcDbEntity
  8
CAD
  6
Continuous
 62
           5
100
AcDbCircle
 10
-38.063646161268
 20
-5.303089829871
 30
0.0
 40
0.1875
100
AcDbArc
 50
-41.25
 51
46.875
1001
ACAD
1000
TCW40_DEV_WIDTH
1002
{
1040
-3.0
1002
}
  0
ARC
  5
271
100
AcDbEntity
  8
CAD
  6
Continuous
 62
           5
100
AcDbCircle
 10
-37.827565410793
 20
-5.510127091403
 30
0.0
 40
0.126504057949
100
AcDbArc
 50
138.75
 51
198.355916088652
1001
ACAD
1000
TCW40_DEV_WIDTH
1002
{
1040
-3.0
1002
}
  0
ARC
  5
272
100
AcDbEntity
  8
CAD
  6
Continuous
 62
           5
100
AcDbCircle
 10
-37.687726257529
 20
-5.632762737421
 30
0.0
 40
0.1875
100
AcDbArc
 50
50.624999999999
 51
138.75
1001
ACAD
1000
TCW40_DEV_WIDTH
1002
{
1040
-3.0
1002
}
  0
ARC
  5
273
100
AcDbEntity
  8
CAD
  6
Continuous
 62
           5
100
AcDbCircle
 10
-37.923807008005
 20
-5.425725475888
 30
0.0
 40
0.126504057949
100
AcDbArc
 50
-100.855916088654
 51
-41.249999999999
1001
ACAD
1000
TCW40_DEV_WIDTH
1002
{
1040
-3.0
1002
}
  0
ARC
  5
274
100
AcDbEntity
  8
CAD
  6
Continuous
 62
           5
100
AcDbCircle
 10
-37.687726257529
 20
-5.632762737421
 30
0.0
 40
0.1875
100
AcDbArc
 50
-37.5
 51
50.624999999998
1001
ACAD
1000
TCW40_DEV_WIDTH
1002
{
1040
-3.0
1002
}
  0
ARC
  5
275
100
AcDbEntity
  8
CAD
  6
Continuous
 62
           5
100
AcDbCircle
 10
-37.43861008929
 20
-5.823916296452
 30
0.0
 40
0.126504057949
100
AcDbArc
 50
142.499999999999
 51
202.105916088652
1001
ACAD
1000
TCW40_DEV_WIDTH
1002
{
1040
-3.0
1002
}
  0
ARC
  5
276
100
AcDbEntity
  8
CAD
  6
Continuous
 62
           5
100
AcDbCircle
 10
-37.291049587383
 20
-5.937143451925
 30
0.0
 40
0.1875
100
AcDbArc
 50
54.375
 51
142.499999999999
1001
ACAD
1000
TCW40_DEV_WIDTH
1002
{
1040
-3.0
1002
}
  0
ARC
  5
277
100
AcDbEntity
  8
CAD
  6
Continuous
 62
           5
100
AcDbCircle
 10
-37.540165755622
 20
-5.745989892894
 30
0.0
 40
0.126504057949
100
AcDbArc
 50
-97.105916088651
 51
-37.500000000001
1001
ACAD
1000
TCW40_DEV_WIDTH
1002
{
1040
-3.0
1002
}
  0
ARC
  5
278
100
AcDbEntity
  8
CAD
  6
Continuous
 62
           5
100
AcDbCircle
 10
-37.291049587383
 20
-5.937143451925
 30
0.0
 40
0.1875
100
AcDbArc
 50
-33.75
 51
54.375
1001
ACAD
1000
TCW40_DEV_WIDTH
1002
{
1040
-3.0
1002
}
  0
ARC
  5
279
100
AcDbEntity
  8
CAD
  6
Continuous
 62
           5
100
AcDbCircle
 10
-37.029964755059
 20
-6.111594759569
 30
0.0
 40
0.126504057949
100
AcDbArc
 50
146.25
 51
205.855916088652
1001
ACAD
1000
TCW40_DEV_WIDTH
1002
{
1040
-3.0
1002
}
  0
ARC
  5
27A
100
AcDbEntity
  8
CAD
  6
Continuous
 62
           5
100
AcDbCircle
 10
-36.875314781232
 20
-6.214928568435
 30
0.0
 40
0.1875
100
AcDbArc
 50
58.125
 51
146.25
1001
ACAD
1000
TCW40_DEV_WIDTH
1002
{
1040
-3.0
1002
}
  0
ARC
  5
27B
100
AcDbEntity
  8
CAD
  6
Continuous
 62
           5
100
AcDbCircle
 10
-37.136399613556
 20
-6.040477260791
 30
0.0
 40
0.126504057949
100
AcDbArc
 50
-93.355916088652
 51
-33.749999999999
1001
ACAD
1000
TCW40_DEV_WIDTH
1002
{
1040
-3.0
1002
}
  0
ARC
  5
27C
100
AcDbEntity
  8
CAD
  6
Continuous
 62
           5
100
AcDbCircle
 10
-36.875314781232
 20
-6.214928568435
 30
0.0
 40
0.1875
100
AcDbArc
 50
-30.0
 51
58.125
1001
ACAD
1000
TCW40_DEV_WIDTH
1002
{
1040
-3.0
1002
}
  0
ARC
  5
27D
100
AcDbEntity
  8
CAD
  6
Continuous
 62
           5
100
AcDbCircle
 10
-36.603379290157
 20
-6.371930597409
 30
0.0
 40
0.126504057949
100
AcDbArc
 50
150.0
 51
209.605916088652
1001
ACAD
1000
TCW40_DEV_WIDTH
1002
{
1040
-3.0
1002
}
  0
ARC
  5
27E
100
AcDbEntity
  8
CAD
  6
Continuous
 62
           5
100
AcDbCircle
 10
-36.44230207934
 20
-6.464928568435
 30
0.0
 40
0.1875
100
AcDbArc
 50
61.875
 51
150.000000000001
1001
ACAD
1000
TCW40_DEV_WIDTH
1002
{
1040
-3.0
1002
}
  0
ARC
  5
27F
100
AcDbEntity
  8
CAD
  6
Continuous
 62
           5
100
AcDbCircle
 10
-36.714237570415
 20
-6.30792653946
 30
0.0
 40
0.126504057949
100
AcDbArc
 50
-89.605916088652
 51
-30.000000000001
1001
ACAD
1000
TCW40_DEV_WIDTH
1002
{
1040
-3.0
1002
}
  0
ARC
  5
280
100
AcDbEntity
  8
CAD
  6
Continuous
 62
           5
100
AcDbCircle
 10
-36.44230207934
 20
-6.464928568435
 30
0.0
 40
0.1875
100
AcDbArc
 50
-26.25
 51
61.875000000001
1001
ACAD
1000
TCW40_DEV_WIDTH
1002
{
1040
-3.0
1002
}
  0
ARC
  5
281
100
AcDbEntity
  8
CAD
  6
Continuous
 62
           5
100
AcDbCircle
 10
-36.160680399035
 20
-6.603809011948
 30
0.0
 40
0.126504057949
100
AcDbArc
 50
153.75
 51
213.355916088652
1001
ACAD
1000
TCW40_DEV_WIDTH
1002
{
1040
-3.0
1002
}
  0
ARC
  5
282
100
AcDbEntity
  8
CAD
  6
Continuous
 62
           5
100
AcDbCircle
 10
-35.993865708574
 20
-6.686072913544
 30
0.0
 40
0.1875
100
AcDbArc
 50
65.625
 51
153.75
1001
ACAD
1000
TCW40_DEV_WIDTH
1002
{
1040
-3.0
1002
}
  0
ARC
  5
283
100
AcDbEntity
  8
CAD
  6
Continuous
 62
           5
100
AcDbCircle
 10
-36.275487388878
 20
-6.547192470031
 30
0.0
 40
0.126504057949
100
AcDbArc
 50
-85.855916088653
 51
-26.25
1001
ACAD
1000
TCW40_DEV_WIDTH
1002
{
1040
-3.0
1002
}
  0
ARC
  5
284
100
AcDbEntity
  8
CAD
  6
Continuous
 62
           5
100
AcDbCircle
 10
-35.993865708574
 20
-6.686072913544
 30
0.0
 40
0.1875
100
AcDbArc
 50
-22.5
 51
65.625
1001
ACAD
1000
TCW40_DEV_WIDTH
1002
{
1040
-3.0
1002
}
  0
ARC
  5
285
100
AcDbEntity
  8
CAD
  6
Continuous
 62
           5
100
AcDbCircle
 10
-35.703763786309
 20
-6.806237064217
 30
0.0
 40
0.126504057949
100
AcDbArc
 50
157.499999999999
 51
217.105916088653
1001
ACAD
1000
TCW40_DEV_WIDTH
1002
{
1040
-3.0
1002
}
  0
ARC
  5
286
100
AcDbEntity
  8
CAD
  6
Continuous
 62
           5
100
AcDbCircle
 10
-35.531925942318
 20
-6.877414629727
 30
0.0
 40
0.1875
100
AcDbArc
 50
69.375000000001
 51
157.5
1001
ACAD
1000
TCW40_DEV_WIDTH
1002
{
1040
-3.0
1002
}
  0
ARC
  5
287
100
AcDbEntity
  8
CAD
  6
Continuous
 62
           5
100
AcDbCircle
 10
-35.822027864582
 20
-6.757250479054
 30
0.0
 40
0.126504057949
100
AcDbArc
 50
-82.105916088653
 51
-22.500000000001
1001
ACAD
1000
TCW40_DEV_WIDTH
1002
{
1040
-3.0
1002
}
  0
ARC
  5
288
100
AcDbEntity
  8
CAD
  6
Continuous
 62
           5
100
AcDbCircle
 10
-35.531925942318
 20
-6.877414629727
 30
0.0
 40
0.1875
100
AcDbArc
 50
-18.75
 51
69.375
1001
ACAD
1000
TCW40_DEV_WIDTH
1002
{
1040
-3.0
1002
}
  0
ARC
  5
289
100
AcDbEntity
  8
CAD
  6
Continuous
 62
           5
100
AcDbCircle
 10
-35.234586039062
 20
-6.978347926217
 30
0.0
 40
0.126504057949
100
AcDbArc
 50
161.25
 51
220.855916088653
1001
ACAD
1000
TCW40_DEV_WIDTH
1002
{
1040
-3.0
1002
}
  0
ARC
  5
28A
100
AcDbEntity
  8
CAD
  6
Continuous
 62
           5
100
AcDbCircle
 10
-35.05846087757
 20
-7.038134362378
 30
0.0
 40
0.1875
100
AcDbArc
 50
73.124999999999
 51
161.25
1001
ACAD
1000
TCW40_DEV_WIDTH
1002
{
1040
-3.0
1002
}
  0
ARC
  5
28B
100
AcDbEntity
  8
CAD
  6
Continuous
 62
           5
100
AcDbCircle
 10
-35.355800780826
 20
-6.937201065888
 30
0.0
 40
0.126504057949
100
AcDbArc
 50
-78.355916088651
 51
-18.75
1001
ACAD
1000
TCW40_DEV_WIDTH
1002
{
1040
-3.0
1002
}
  0
ARC
  5
28C
100
AcDbEntity
  8
CAD
  6
Continuous
 62
           5
100
AcDbCircle
 10
-35.05846087757
 20
-7.038134362378
 30
0.0
 40
0.1875
100
AcDbArc
 50
-15.0
 51
73.124999999999
1001
ACAD
1000
TCW40_DEV_WIDTH
1002
{
1040
-3.0
1002
}
  0
ARC
  5
28D
100
AcDbEntity
  8
CAD
  6
Continuous
 62
           5
100
AcDbCircle
 10
-34.755156248438
 20
-7.119404592815
 30
0.0
 40
0.126504057949
100
AcDbArc
 50
165.0
 51
224.605916088651
1001
ACAD
1000
TCW40_DEV_WIDTH
1002
{
1040
-3.0
1002
}
  0
ARC
  5
28E
100
AcDbEntity
  8
CAD
  6
Continuous
 62
           5
100
AcDbCircle
 10
-34.575497964426
 20
-7.16754388493
 30
0.0
 40
0.1875
100
AcDbArc
 50
76.875
 51
165.0
1001
ACAD
1000
TCW40_DEV_WIDTH
1002
{
1040
-3.0
1002
}
  0
ARC
  5
28F
100
AcDbEntity
  8
CAD
  6
Continuous
 62
           5
100
AcDbCircle
 10
-34.878802593558
 20
-7.086273654493
 30
0.0
 40
0.126504057949
100
AcDbArc
 50
-74.605916088653
 51
-15.0
1001
ACAD
1000
TCW40_DEV_WIDTH
1002
{
1040
-3.0
1002
}
  0
ARC
  5
290
100
AcDbEntity
  8
CAD
  6
Continuous
 62
           5
100
AcDbCircle
 10
-34.575497964426
 20
-7.16754388493
 30
0.0
 40
0.1875
100
AcDbArc
 50
-11.25
 51
76.875000000001
1001
ACAD
1000
TCW40_DEV_WIDTH
1002
{
1040
-3.0
1002
}
  0
ARC
  5
291
100
AcDbEntity
  8
CAD
  6
Continuous
 62
           5
100
AcDbCircle
 10
-34.267527406403
 20
-7.228803037709
 30
0.0
 40
0.126504057949
100
AcDbArc
 50
168.75
 51
228.355916088652
1001
ACAD
1000
TCW40_DEV_WIDTH
1002
{
1040
-3.0
1002
}
  0
ARC
  5
292
100
AcDbEntity
  8
CAD
  6
Continuous
 62
           5
100
AcDbCircle
 10
-34.085105324224
 20
-7.265089045938
 30
0.0
 40
0.1875
100
AcDbArc
 50
80.625000000001
 51
168.75
1001
ACAD
1000
TCW40_DEV_WIDTH
1002
{
1040
-3.0
1002
}
  0
ARC
  5
293
100
AcDbEntity
  8
CAD
  6
Continuous
 62
           5
100
AcDbCircle
 10
-34.393075882247
 20
-7.203829893158
 30
0.0
 40
0.126504057949
100
AcDbArc
 50
-70.855916088653
 51
-11.25
1001
ACAD
1000
TCW40_DEV_WIDTH
1002
{
1040
-3.0
1002
}
  0
ARC
  5
294
100
AcDbEntity
  8
CAD
  6
Continuous
 62
           5
100
AcDbCircle
 10
-34.085105324224
 20
-7.265089045938
 30
0.0
 40
0.1875
100
AcDbArc
 50
-7.5
 51
80.625
1001
ACAD
1000
TCW40_DEV_WIDTH
1002
{
1040
-3.0
1002
}
  0
ARC
  5
295
100
AcDbEntity
  8
CAD
  6
Continuous
 62
           5
100
AcDbCircle
 10
-33.77378761452
 20
-7.306074799963
 30
0.0
 40
0.126504057949
100
AcDbArc
 50
172.5
 51
232.105916088651
1001
ACAD
1000
TCW40_DEV_WIDTH
1002
{
1040
-3.0
1002
}
  0
ARC
  5
296
100
AcDbEntity
  8
CAD
  6
Continuous
 62
           5
100
AcDbCircle
 10
-33.589382893537
 20
-7.330352142048
 30
0.0
 40
0.1875
100
AcDbArc
 50
84.375
 51
172.5
1001
ACAD
1000
TCW40_DEV_WIDTH
1002
{
1040
-3.0
1002
}
  0
ARC
  5
297
100
AcDbEntity
  8
CAD
  6
Continuous
 62
           5
100
AcDbCircle
 10
-33.900700603241
 20
-7.289366388022
 30
0.0
 40
0.126504057949
100
AcDbArc
 50
-67.105916088654
 51
-7.5
1001
ACAD
1000
TCW40_DEV_WIDTH
1002
{
1040
-3.0
1002
}
  0
ARC
  5
298
100
AcDbEntity
  8
CAD
  6
Continuous
 62
           5
100
AcDbCircle
 10
-33.589382893537
 20
-7.330352142048
 30
0.0
 40
0.1875
100
AcDbArc
 50
-3.75
 51
84.375
1001
ACAD
1000
TCW40_DEV_WIDTH
1002
{
1040
-3.0
1002
}
  0
ARC
  5
299
100
AcDbEntity
  8
CAD
  6
Continuous
 62
           5
100
AcDbCircle
 10
-33.27605114238
 20
-7.350888990029
 30
0.0
 40
0.126504057949
100
AcDbArc
 50
176.25
 51
235.855916088655
1001
ACAD
1000
TCW40_DEV_WIDTH
1002
{
1040
-3.0
1002
}
  0
ARC
  5
29A
100
AcDbEntity
  8
CAD
  6
Continuous
 62
           5
100
AcDbCircle
 10
-33.090453431918
 20
-7.363053706663
 30
0.0
 40
0.1875
100
AcDbArc
 50
88.125
 51
176.25
1001
ACAD
1000
TCW40_DEV_WIDTH
1002
{
1040
-3.0
1002
}
  0
ARC
  5
29B
100
AcDbEntity
  8
CAD
  6
Continuous
 62
           5
100
AcDbCircle
 10
-33.403785183075
 20
-7.342516858682
 30
0.0
 40
0.126504057949
100
AcDbArc
 50
-63.355916088651
 51
-3.75
1001
ACAD
1000
TCW40_DEV_WIDTH
1002
{
1040
-3.0
1002
}
  0
ARC
  5
29C
100
AcDbEntity
  8
CAD
  6
Continuous
 62
           5
100
AcDbCircle
 10
-33.090453431918
 20
-7.363053706663
 30
0.0
 40
0.1875
100
AcDbArc
 50
0.0
 51
88.125
1001
ACAD
1000
TCW40_DEV_WIDTH
1002
{
1040
-3.0
1002
}
  0
ARC
  5
29D
100
AcDbEntity
  8
CAD
  6
Continuous
 62
           5
100
AcDbCircle
 10
-32.776449373969
 20
-7.363053706663
 30
0.0
 40
0.126504057949
100
AcDbArc
 50
180.0
 51
239.605916088652
1001
ACAD
1000
TCW40_DEV_WIDTH
1002
{
1040
-3.0
1002
}
  0
ARC
  5
29E
100
AcDbEntity
  8
CAD
  6
Continuous
 62
           5
100
AcDbCircle
 10
-32.590453431918
 20
-7.363053706663
 30
0.0
 40
0.1875
100
AcDbArc
 50
91.875
 51
180.0
1001
ACAD
1000
TCW40_DEV_WIDTH
1002
{
1040
-3.0
1002
}
  0
ARC
  5
29F
100
AcDbEntity
  8
CAD
  6
Continuous
 62
           5
100
AcDbCircle
 10
-32.904457489867
 20
-7.363053706663
 30
0.0
 40
0.126504057949
100
AcDbArc
 50
-59.605916088652
 51
0.0
1001
ACAD
1000
TCW40_DEV_WIDTH
1002
{
1040
-3.0
1002
}
  0
ARC
  5
2A0
100
AcDbEntity
  8
CAD
  6
Continuous
 62
           5
100
AcDbCircle
 10
-32.590453431918
 20
-7.363053706663
 30
0.0
 40
0.1875
100
AcDbArc
 50
3.75
 51
91.875
1001
ACAD
1000
TCW40_DEV_WIDTH
1002
{
1040
-3.0
1002
}
  0
ARC
  5
2A1
100
AcDbEntity
  8
CAD
  6
Continuous
 62
           5
100
AcDbCircle
 10
-32.277121680761
 20
-7.342516858682
 30
0.0
 40
0.126504057949
100
AcDbArc
 50
-176.25
 51
-116.644083911349
1001
ACAD
1000
TCW40_DEV_WIDTH
1002
{
1040
-3.0
1002
}
  0
ARC
  5
2A2
100
AcDbEntity
  8
CAD
  6
Continuous
 62
           5
100
AcDbCircle
 10
-32.091523970299
 20
-7.330352142048
 30
0.0
 40
0.1875
100
AcDbArc
 50
95.625
 51
183.75
1001
ACAD
1000
TCW40_DEV_WIDTH
1002
{
1040
-3.0
1002
}
  0
ARC
  5
2A3
100
AcDbEntity
  8
CAD
  6
Continuous
 62
           5
100
AcDbCircle
 10
-32.404855721456
 20
-7.350888990029
 30
0.0
 40
0.126504057949
100
AcDbArc
 50
-55.855916088654
 51
3.75
1001
ACAD
1000
TCW40_DEV_WIDTH
1002
{
1040
-3.0
1002
}
  0
ARC
  5
2A4
100
AcDbEntity
  8
CAD
  6
Continuous
 62
           5
100
AcDbCircle
 10
-32.091523970299
 20
-7.330352142048
 30
0.0
 40
0.1875
100
AcDbArc
 50
7.5
 51
95.625
1001
ACAD
1000
TCW40_DEV_WIDTH
1002
{
1040
-3.0
1002
}
  0
ARC
  5
2A5
100
AcDbEntity
  8
CAD
  6
Continuous
 62
           5
100
AcDbCircle
 10
-31.780206260595
 20
-7.289366388022
 30
0.0
 40
0.126504057949
100
AcDbArc
 50
-172.5
 51
-112.894083911348
1001
ACAD
1000
TCW40_DEV_WIDTH
1002
{
1040
-3.0
1002
}
  0
ARC
  5
2A6
100
AcDbEntity
  8
CAD
  6
Continuous
 62
           5
100
AcDbCircle
 10
-31.595801539612
 20
-7.265089045938
 30
0.0
 40
0.1875
100
AcDbArc
 50
99.375
 51
187.5
1001
ACAD
1000
TCW40_DEV_WIDTH
1002
{
1040
-3.0
1002
}
  0
ARC
  5
2A7
100
AcDbEntity
  8
CAD
  6
Continuous
 62
           5
100
AcDbCircle
 10
-31.907119249316
 20
-7.306074799963
 30
0.0
 40
0.126504057949
100
AcDbArc
 50
-52.105916088653
 51
7.5
1001
ACAD
1000
TCW40_DEV_WIDTH
1002
{
1040
-3.0
1002
}
  0
ARC
  5
2A8
100
AcDbEntity
  8
CAD
  6
Continuous
 62
           5
100
AcDbCircle
 10
-31.595801539612
 20
-7.265089045938
 30
0.0
 40
0.1875
100
AcDbArc
 50
11.25
 51
99.374999999999
1001
ACAD
1000
TCW40_DEV_WIDTH
1002
{
1040
-3.0
1002
}
  0
ARC
  5
2A9
100
AcDbEntity
  8
CAD
  6
Continuous
 62
           5
100
AcDbCircle
 10
-31.287830981589
 20
-7.203829893158
 30
0.0
 40
0.126504057949
100
AcDbArc
 50
-168.75
 51
-109.144083911349
1001
ACAD
1000
TCW40_DEV_WIDTH
1002
{
1040
-3.0
1002
}
  0
ARC
  5
2AA
100
AcDbEntity
  8
CAD
  6
Continuous
 62
           5
100
AcDbCircle
 10
-31.10540889941
 20
-7.16754388493
 30
0.0
 40
0.1875
100
AcDbArc
 50
103.125
 51
191.25
1001
ACAD
1000
TCW40_DEV_WIDTH
1002
{
1040
-3.0
1002
}
  0
ARC
  5
2AB
100
AcDbEntity
  8
CAD
  6
Continuous
 62
           5
100
AcDbCircle
 10
-31.413379457433
 20
-7.228803037709
 30
0.0
 40
0.126504057949
100
AcDbArc
 50
-48.355916088653
 51
11.25
1001
ACAD
1000
TCW40_DEV_WIDTH
1002
{
1040
-3.0
1002
}
  0
ARC
  5
2AC
100
AcDbEntity
  8
CAD
  6
Continuous
 62
           5
100
AcDbCircle
 10
-31.10540889941
 20
-7.16754388493
 30
0.0
 40
0.1875
100
AcDbArc
 50
15.0
 51
103.125
1001
ACAD
1000
TCW40_DEV_WIDTH
1002
{
1040
-3.0
1002
}
  0
ARC
  5
2AD
100
AcDbEntity
  8
CAD
  6
Continuous
 62
           5
100
AcDbCircle
 10
-30.802104270278
 20
-7.086273654493
 30
0.0
 40
0.126504057949
100
AcDbArc
 50
-165.0
 51
-105.394083911348
1001
ACAD
1000
TCW40_DEV_WIDTH
1002
{
1040
-3.0
1002
}
  0
ARC
  5
2AE
100
AcDbEntity
  8
CAD
  6
Continuous
 62
           5
100
AcDbCircle
 10
-30.622445986266
 20
-7.038134362378
 30
0.0
 40
0.1875
100
AcDbArc
 50
106.875
 51
195.0
1001
ACAD
1000
TCW40_DEV_WIDTH
1002
{
1040
-3.0
1002
}
  0
ARC
  5
2AF
100
AcDbEntity
  8
CAD
  6
Continuous
 62
           5
100
AcDbCircle
 10
-30.925750615398
 20
-7.119404592815
 30
0.0
 40
0.126504057949
100
AcDbArc
 50
-44.605916088652
 51
15.0
1001
ACAD
1000
TCW40_DEV_WIDTH
1002
{
1040
-3.0
1002
}
  0
ARC
  5
2B0
100
AcDbEntity
  8
CAD
  6
Continuous
 62
           5
100
AcDbCircle
 10
-30.622445986266
 20
-7.038134362378
 30
0.0
 40
0.1875
100
AcDbArc
 50
18.75
 51
106.875
1001
ACAD
1000
TCW40_DEV_WIDTH
1002
{
1040
-3.0
1002
}
  0
ARC
  5
2B1
100
AcDbEntity
  8
CAD
  6
Continuous
 62
           5
100
AcDbCircle
 10
-30.32510608301
 20
-6.937201065888
 30
0.0
 40
0.126504057949
100
AcDbArc
 50
-161.25
 51
-101.644083911348
1001
ACAD
1000
TCW40_DEV_WIDTH
1002
{
1040
-3.0
1002
}
  0
ARC
  5
2B2
100
AcDbEntity
  8
CAD
  6
Continuous
 62
           5
100
AcDbCircle
 10
-30.148980921518
 20
-6.877414629727
 30
0.0
 40
0.1875
100
AcDbArc
 50
110.625
 51
198.75
1001
ACAD
1000
TCW40_DEV_WIDTH
1002
{
1040
-3.0
1002
}
  0
ARC
  5
2B3
100
AcDbEntity
  8
CAD
  6
Continuous
 62
           5
100
AcDbCircle
 10
-30.446320824773
 20
-6.978347926217
 30
0.0
 40
0.126504057949
100
AcDbArc
 50
-40.855916088652
 51
18.75
1001
ACAD
1000
TCW40_DEV_WIDTH
1002
{
1040
-3.0
1002
}
  0
ARC
  5
2B4
100
AcDbEntity
  8
CAD
  6
Continuous
 62
           5
100
AcDbCircle
 10
-30.148980921518
 20
-6.877414629727
 30
0.0
 40
0.1875
100
AcDbArc
 50
22.5
 51
110.625
1001
ACAD
1000
TCW40_DEV_WIDTH
1002
{
1040
-3.0
1002
}
  0
ARC
  5
2B5
100
AcDbEntity
  8
CAD
  6
Continuous
 62
           5
100
AcDbCircle
 10
-29.858878999254
 20
-6.757250479054
 30
0.0
 40
0.126504057949
100
AcDbArc
 50
-157.5
 51
-97.894083911349
1001
ACAD
1000
TCW40_DEV_WIDTH
1002
{
1040
-3.0
1002
}
  0
ARC
  5
2B6
100
AcDbEntity
  8
CAD
  6
Continuous
 62
           5
100
AcDbCircle
 10
-29.687041155262
 20
-6.686072913544
 30
0.0
 40
0.1875
100
AcDbArc
 50
114.375
 51
202.5
1001
ACAD
1000
TCW40_DEV_WIDTH
1002
{
1040
-3.0
1002
}
  0
ARC
  5
2B7
100
AcDbEntity
  8
CAD
  6
Continuous
 62
           5
100
AcDbCircle
 10
-29.977143077527
 20
-6.806237064217
 30
0.0
 40
0.126504057949
100
AcDbArc
 50
-37.105916088653
 51
22.5
1001
ACAD
1000
TCW40_DEV_WIDTH
1002
{
1040
-3.0
1002
}
  0
ARC
  5
2B8
100
AcDbEntity
  8
CAD
  6
Continuous
 62
           5
100
AcDbCircle
 10
-29.687041155262
 20
-6.686072913544
 30
0.0
 40
0.1875
100
AcDbArc
 50
26.25
 51
114.375000000001
1001
ACAD
1000
TCW40_DEV_WIDTH
1002
{
1040
-3.0
1002
}
  0
ARC
  5
2B9
100
AcDbEntity
  8
CAD
  6
Continuous
 62
           5
100
AcDbCircle
 10
-29.405419474958
 20
-6.547192470031
 30
0.0
 40
0.126504057949
100
AcDbArc
 50
-153.75
 51
-94.144083911348
1001
ACAD
1000
TCW40_DEV_WIDTH
1002
{
1040
-3.0
1002
}
  0
ARC
  5
2BA
100
AcDbEntity
  8
CAD
  6
Continuous
 62
           5
100
AcDbCircle
 10
-29.238604784496
 20
-6.464928568435
 30
0.0
 40
0.1875
100
AcDbArc
 50
118.125
 51
206.25
1001
ACAD
1000
TCW40_DEV_WIDTH
1002
{
1040
-3.0
1002
}
  0
ARC
  5
2BB
100
AcDbEntity
  8
CAD
  6
Continuous
 62
           5
100
AcDbCircle
 10
-29.520226464801
 20
-6.603809011948
 30
0.0
 40
0.126504057949
100
AcDbArc
 50
-33.355916088653
 51
26.249999999999
1001
ACAD
1000
TCW40_DEV_WIDTH
1002
{
1040
-3.0
1002
}
  0
ARC
  5
2BC
100
AcDbEntity
  8
CAD
  6
Continuous
 62
           5
100
AcDbCircle
 10
-29.238604784496
 20
-6.464928568435
 30
0.0
 40
0.1875
100
AcDbArc
 50
30.0
 51
118.125
1001
ACAD
1000
TCW40_DEV_WIDTH
1002
{
1040
-3.0
1002
}
  0
ARC
  5
2BD
100
AcDbEntity
  8
CAD
  6
Continuous
 62
           5
100
AcDbCircle
 10
-28.966669293421
 20
-6.30792653946
 30
0.0
 40
0.126504057949
100
AcDbArc
 50
-150.0
 51
-90.394083911348
1001
ACAD
1000
TCW40_DEV_WIDTH
1002
{
1040
-3.0
1002
}
  0
ARC
  5
2BE
100
AcDbEntity
  8
CAD
  6
Continuous
 62
           5
100
AcDbCircle
 10
-28.805592082604
 20
-6.214928568435
 30
0.0
 40
0.1875
100
AcDbArc
 50
121.874999999999
 51
210.0
1001
ACAD
1000
TCW40_DEV_WIDTH
1002
{
1040
-3.0
1002
}
  0
ARC
  5
2BF
100
AcDbEntity
  8
CAD
  6
Continuous
 62
           5
100
AcDbCircle
 10
-29.077527573679
 20
-6.371930597409
 30
0.0
 40
0.126504057949
100
AcDbArc
 50
-29.605916088652
 51
30.0
1001
ACAD
1000
TCW40_DEV_WIDTH
1002
{
1040
-3.0
1002
}
  0
ARC
  5
2C0
100
AcDbEntity
  8
CAD
  6
Continuous
 62
           5
100
AcDbCircle
 10
-28.805592082604
 20
-6.214928568435
 30
0.0
 40
0.1875
100
AcDbArc
 50
33.75
 51
121.874999999999
1001
ACAD
1000
TCW40_DEV_WIDTH
1002
{
1040
-3.0
1002
}
  0
ARC
  5
2C1
100
AcDbEntity
  8
CAD
  6
Continuous
 62
           5
100
AcDbCircle
 10
-28.54450725028
 20
-6.040477260791
 30
0.0
 40
0.126504057949
100
AcDbArc
 50
-146.25
 51
-86.644083911348
1001
ACAD
1000
TCW40_DEV_WIDTH
1002
{
1040
-3.0
1002
}
  0
ARC
  5
2C2
100
AcDbEntity
  8
CAD
  6
Continuous
 62
           5
100
AcDbCircle
 10
-28.389857276453
 20
-5.937143451925
 30
0.0
 40
0.1875
100
AcDbArc
 50
125.625
 51
213.749999999999
1001
ACAD
1000
TCW40_DEV_WIDTH
1002
{
1040
-3.0
1002
}
  0
ARC
  5
2C3
100
AcDbEntity
  8
CAD
  6
Continuous
 62
           5
100
AcDbCircle
 10
-28.650942108777
 20
-6.111594759569
 30
0.0
 40
0.126504057949
100
AcDbArc
 50
-25.855916088652
 51
33.75
1001
ACAD
1000
TCW40_DEV_WIDTH
1002
{
1040
-3.0
1002
}
  0
ARC
  5
2C4
100
AcDbEntity
  8
CAD
  6
Continuous
 62
           5
100
AcDbCircle
 10
-28.389857276453
 20
-5.937143451925
 30
0.0
 40
0.1875
100
AcDbArc
 50
37.5
 51
125.625
1001
ACAD
1000
TCW40_DEV_WIDTH
1002
{
1040
-3.0
1002
}
  0
ARC
  5
2C5
100
AcDbEntity
  8
CAD
  6
Continuous
 62
           5
100
AcDbCircle
 10
-28.140741108214
 20
-5.745989892894
 30
0.0
 40
0.126504057949
100
AcDbArc
 50
-142.5
 51
-82.894083911349
1001
ACAD
1000
TCW40_DEV_WIDTH
1002
{
1040
-3.0
1002
}
  0
ARC
  5
2C6
100
AcDbEntity
  8
CAD
  6
Continuous
 62
           5
100
AcDbCircle
 10
-27.993180606307
 20
-5.632762737421
 30
0.0
 40
0.1875
100
AcDbArc
 50
129.375
 51
217.5
1001
ACAD
1000
TCW40_DEV_WIDTH
1002
{
1040
-3.0
1002
}
  0
ARC
  5
2C7
100
AcDbEntity
  8
CAD
  6
Continuous
 62
           5
100
AcDbCircle
 10
-28.242296774546
 20
-5.823916296452
 30
0.0
 40
0.126504057949
100
AcDbArc
 50
-22.105916088652
 51
37.5
1001
ACAD
1000
TCW40_DEV_WIDTH
1002
{
1040
-3.0
1002
}
  0
ARC
  5
2C8
100
AcDbEntity
  8
CAD
  6
Continuous
 62
           5
100
AcDbCircle
 10
-27.993180606307
 20
-5.632762737421
 30
0.0
 40
0.1875
100
AcDbArc
 50
41.25
 51
129.375
1001
ACAD
1000
TCW40_DEV_WIDTH
1002
{
1040
-3.0
1002
}
  0
ARC
  5
2C9
100
AcDbEntity
  8
CAD
  6
Continuous
 62
           5
100
AcDbCircle
 10
-27.757099855831
 20
-5.425725475888
 30
0.0
 40
0.126504057949
100
AcDbArc
 50
-138.75
 51
-79.144083911347
1001
ACAD
1000
TCW40_DEV_WIDTH
1002
{
1040
-3.0
1002
}
  0
ARC
  5
2CA
100
AcDbEntity
  8
CAD
  6
Continuous
 62
           5
100
AcDbCircle
 10
-27.617260702567
 20
-5.303089829871
 30
0.0
 40
0.1875
100
AcDbArc
 50
133.125
 51
221.25
1001
ACAD
1000
TCW40_DEV_WIDTH
1002
{
1040
-3.0
1002
}
  0
ARC
  5
2CB
100
AcDbEntity
  8
CAD
  6
Continuous
 62
           5
100
AcDbCircle
 10
-27.853341453043
 20
-5.510127091403
 30
0.0
 40
0.126504057949
100
AcDbArc
 50
-18.355916088652
 51
41.25
1001
ACAD
1000
TCW40_DEV_WIDTH
1002
{
1040
-3.0
1002
}
  0
ARC
  5
2CC
100
AcDbEntity
  8
CAD
  6
Continuous
 62
           5
100
AcDbCircle
 10
-27.617260702567
 20
-5.303089829871
 30
0.0
 40
0.1875
100
AcDbArc
 50
45.000000000001
 51
133.125
1001
ACAD
1000
TCW40_DEV_WIDTH
1002
{
1040
-3.0
1002
}
  0
ARC
  5
2CD
100
AcDbEntity
  8
CAD
  6
Continuous
 62
           5
100
AcDbCircle
 10
-27.395226303872
 20
-5.081055431175
 30
0.0
 40
0.126504057949
100
AcDbArc
 50
-135.0
 51
-75.394083911346
1001
ACAD
1000
TCW40_DEV_WIDTH
1002
{
1040
-3.0
1002
}
  0
ARC
  5
2CE
100
AcDbEntity
  8
CAD
  6
Continuous
 62
           5
100
AcDbCircle
 10
-27.263707311974
 20
-4.949536439277
 30
0.0
 40
0.1875
100
AcDbArc
 50
136.875
 51
225.000000000001
1001
ACAD
1000
TCW40_DEV_WIDTH
1002
{
1040
-3.0
1002
}
  0
ARC
  5
2CF
100
AcDbEntity
  8
CAD
  6
Continuous
 62
           5
100
AcDbCircle
 10
-27.48574171067
 20
-5.171570837973
 30
0.0
 40
0.126504057949
100
AcDbArc
 50
-14.605916088652
 51
45.0
1001
ACAD
1000
TCW40_DEV_WIDTH
1002
{
1040
-3.0
1002
}
  0
ARC
  5
2D0
100
AcDbEntity
  8
CAD
  6
Continuous
 62
           5
100
AcDbCircle
 10
-27.263707311974
 20
-4.949536439277
 30
0.0
 40
0.1875
100
AcDbArc
 50
48.75
 51
136.874999999999
1001
ACAD
1000
TCW40_DEV_WIDTH
1002
{
1040
-3.0
1002
}
  0
ARC
  5
2D1
100
AcDbEntity
  8
CAD
  6
Continuous
 62
           5
100
AcDbCircle
 10
-27.056670050441
 20
-4.713455688801
 30
0.0
 40
0.126504057949
100
AcDbArc
 50
-131.249999999999
 51
-71.644083911348
1001
ACAD
1000
TCW40_DEV_WIDTH
1002
{
1040
-3.0
1002
}
  0
ARC
  5
2D2
100
AcDbEntity
  8
CAD
  6
Continuous
 62
           5
100
AcDbCircle
 10
-26.934034404424
 20
-4.573616535538
 30
0.0
 40
0.1875
100
AcDbArc
 50
140.625
 51
228.75
1001
ACAD
1000
TCW40_DEV_WIDTH
1002
{
1040
-3.0
1002
}
  0
ARC
  5
2D3
100
AcDbEntity
  8
CAD
  6
Continuous
 62
           5
100
AcDbCircle
 10
-27.141071665957
 20
-4.809697286014
 30
0.0
 40
0.126504057949
100
AcDbArc
 50
-10.855916088653
 51
48.75
1001
ACAD
1000
TCW40_DEV_WIDTH
1002
{
1040
-3.0
1002
}
  0
ARC
  5
2D4
100
AcDbEntity
  8
CAD
  6
Continuous
 62
           5
100
AcDbCircle
 10
-26.934034404424
 20
-4.573616535538
 30
0.0
 40
0.1875
100
AcDbArc
 50
52.5
 51
140.625
1001
ACAD
1000
TCW40_DEV_WIDTH
1002
{
1040
-3.0
1002
}
  0
ARC
  5
2D5
100
AcDbEntity
  8
CAD
  6
Continuous
 62
           5
100
AcDbCircle
 10
-26.742880845393
 20
-4.324500367299
 30
0.0
 40
0.126504057949
100
AcDbArc
 50
-127.499999999999
 51
-67.894083911347
1001
ACAD
1000
TCW40_DEV_WIDTH
1002
{
1040
-3.0
1002
}
  0
ARC
  5
2D6
100
AcDbEntity
  8
CAD
  6
Continuous
 62
           5
100
AcDbCircle
 10
-26.62965368992
 20
-4.176939865392
 30
0.0
 40
0.1875
100
AcDbArc
 50
144.375
 51
232.5
1001
ACAD
1000
TCW40_DEV_WIDTH
1002
{
1040
-3.0
1002
}
  0
ARC
  5
2D7
100
AcDbEntity
  8
CAD
  6
Continuous
 62
           5
100
AcDbCircle
 10
-26.820807248951
 20
-4.426056033631
 30
0.0
 40
0.126504057949
100
AcDbArc
 50
-7.105916088653
 51
52.500000000001
1001
ACAD
1000
TCW40_DEV_WIDTH
1002
{
1040
-3.0
1002
}
  0
ARC
  5
2D8
100
AcDbEntity
  8
CAD
  6
Continuous
 62
           5
100
AcDbCircle
 10
-26.62965368992
 20
-4.176939865392
 30
0.0
 40
0.1875
100
AcDbArc
 50
56.249999999999
 51
144.375000000001
1001
ACAD
1000
TCW40_DEV_WIDTH
1002
{
1040
-3.0
1002
}
  0
ARC
  5
2D9
100
AcDbEntity
  8
CAD
  6
Continuous
 62
           5
100
AcDbCircle
 10
-26.455202382276
 20
-3.915855033068
 30
0.0
 40
0.126504057949
100
AcDbArc
 50
-123.75
 51
-64.144083911348
1001
ACAD
1000
TCW40_DEV_WIDTH
1002
{
1040
-3.0
1002
}
  0
ARC
  5
2DA
100
AcDbEntity
  8
CAD
  6
Continuous
 62
           5
100
AcDbCircle
 10
-26.35186857341
 20
-3.761205059241
 30
0.0
 40
0.1875
100
AcDbArc
 50
148.125
 51
236.249999999999
1001
ACAD
1000
TCW40_DEV_WIDTH
1002
{
1040
-3.0
1002
}
  0
ARC
  5
2DB
100
AcDbEntity
  8
CAD
  6
Continuous
 62
           5
100
AcDbCircle
 10
-26.526319881054
 20
-4.022289891565
 30
0.0
 40
0.126504057949
100
AcDbArc
 50
-3.355916088652
 51
56.25
1001
ACAD
1000
TCW40_DEV_WIDTH
1002
{
1040
-3.0
1002
}
  0
ARC
  5
2DC
100
AcDbEntity
  8
CAD
  6
Continuous
 62
           5
100
AcDbCircle
 10
-26.35186857341
 20
-3.761205059241
 30
0.0
 40
0.1875
100
AcDbArc
 50
60.0
 51
148.124999999999
1001
ACAD
1000
TCW40_DEV_WIDTH
1002
{
1040
-3.0
1002
}
  0
ARC
  5
2DD
100
AcDbEntity
  8
CAD
  6
Continuous
 62
           5
100
AcDbCircle
 10
-26.194866544436
 20
-3.489269568166
 30
0.0
 40
0.126504057949
100
AcDbArc
 50
-120.000000000001
 51
-60.394083911347
1001
ACAD
1000
TCW40_DEV_WIDTH
1002
{
1040
-3.0
1002
}
  0
ARC
  5
2DE
100
AcDbEntity
  8
CAD
  6
Continuous
 62
           5
100
AcDbCircle
 10
-26.10186857341
 20
-3.328192357349
 30
0.0
 40
0.1875
100
AcDbArc
 50
151.875
 51
240.0
1001
ACAD
1000
TCW40_DEV_WIDTH
1002
{
1040
-3.0
1002
}
  0
ARC
  5
2DF
100
AcDbEntity
  8
CAD
  6
Continuous
 62
           5
100
AcDbCircle
 10
-26.258870602384
 20
-3.600127848424
 30
0.0
 40
0.126504057949
100
AcDbArc
 50
0.394083911348
 51
60.0
1001
ACAD
1000
TCW40_DEV_WIDTH
1002
{
1040
-3.0
1002
}
  0
ARC
  5
2E0
100
AcDbEntity
  8
CAD
  6
Continuous
 62
           5
100
AcDbCircle
 10
-26.10186857341
 20
-3.328192357349
 30
0.0
 40
0.1875
100
AcDbArc
 50
63.75
 51
151.875000000001
1001
ACAD
1000
TCW40_DEV_WIDTH
1002
{
1040
-3.0
1002
}
  0
ARC
  5
2E1
100
AcDbEntity
  8
CAD
  6
Continuous
 62
           5
100
AcDbCircle
 10
-25.962988129896
 20
-3.046570677044
 30
0.0
 40
0.126504057949
100
AcDbArc
 50
-116.25
 51
-56.644083911348
1001
ACAD
1000
TCW40_DEV_WIDTH
1002
{
1040
-3.0
1002
}
  0
ARC
  5
2E2
100
AcDbEntity
  8
CAD
  6
Continuous
 62
           5
100
AcDbCircle
 10
-25.8807242283
 20
-2.879755986582
 30
0.0
 40
0.1875
100
AcDbArc
 50
155.625
 51
243.75
1001
ACAD
1000
TCW40_DEV_WIDTH
1002
{
1040
-3.0
1002
}
  0
ARC
  5
2E3
100
AcDbEntity
  8
CAD
  6
Continuous
 62
           5
100
AcDbCircle
 10
-26.019604671814
 20
-3.161377666887
 30
0.0
 40
0.126504057949
100
AcDbArc
 50
4.144083911348
 51
63.75
1001
ACAD
1000
TCW40_DEV_WIDTH
1002
{
1040
-3.0
1002
}
  0
ARC
  5
2E4
100
AcDbEntity
  8
CAD
  6
Continuous
 62
           5
100
AcDbCircle
 10
-25.8807242283
 20
-2.879755986582
 30
0.0
 40
0.1875
100
AcDbArc
 50
67.5
 51
155.625
1001
ACAD
1000
TCW40_DEV_WIDTH
1002
{
1040
-3.0
1002
}
  0
ARC
  5
2E5
100
AcDbEntity
  8
CAD
  6
Continuous
 62
           5
100
AcDbCircle
 10
-25.760560077628
 20
-2.589654064318
 30
0.0
 40
0.126504057949
100
AcDbArc
 50
-112.5
 51
-52.894083911348
1001
ACAD
1000
TCW40_DEV_WIDTH
1002
{
1040
-3.0
1002
}
  0
ARC
  5
2E6
100
AcDbEntity
  8
CAD
  6
Continuous
 62
           5
100
AcDbCircle
 10
-25.689382512118
 20
-2.417816220327
 30
0.0
 40
0.1875
100
AcDbArc
 50
159.375
 51
247.5
1001
ACAD
1000
TCW40_DEV_WIDTH
1002
{
1040
-3.0
1002
}
  0
ARC
  5
2E7
100
AcDbEntity
  8
CAD
  6
Continuous
 62
           5
100
AcDbCircle
 10
-25.80954666279
 20
-2.707918142591
 30
0.0
 40
0.126504057949
100
AcDbArc
 50
7.894083911348
 51
67.499999999999
1001
ACAD
1000
TCW40_DEV_WIDTH
1002
{
1040
-3.0
1002
}
  0
ARC
  5
2E8
100
AcDbEntity
  8
CAD
  6
Continuous
 62
           5
100
AcDbCircle
 10
-25.689382512118
 20
-2.417816220327
 30
0.0
 40
0.1875
100
AcDbArc
 50
71.249999999999
 51
159.375
1001
ACAD
1000
TCW40_DEV_WIDTH
1002
{
1040
-3.0
1002
}
  0
ARC
  5
2E9
100
AcDbEntity
  8
CAD
  6
Continuous
 62
           5
100
AcDbCircle
 10
-25.588449215628
 20
-2.120476317071
 30
0.0
 40
0.126504057949
100
AcDbArc
 50
-108.750000000001
 51
-49.144083911348
1001
ACAD
1000
TCW40_DEV_WIDTH
1002
{
1040
-3.0
1002
}
  0
ARC
  5
2EA
100
AcDbEntity
  8
CAD
  6
Continuous
 62
           5
100
AcDbCircle
 10
-25.528662779466
 20
-1.944351155579
 30
0.0
 40
0.1875
100
AcDbArc
 50
163.125
 51
251.249999999999
1001
ACAD
1000
TCW40_DEV_WIDTH
1002
{
1040
-3.0
1002
}
  0
ARC
  5
2EB
100
AcDbEntity
  8
CAD
  6
Continuous
 62
           5
100
AcDbCircle
 10
-25.629596075956
 20
-2.241691058835
 30
0.0
 40
0.126504057949
100
AcDbArc
 50
11.644083911348
 51
71.249999999999
1001
ACAD
1000
TCW40_DEV_WIDTH
1002
{
1040
-3.0
1002
}
  0
ARC
  5
2EC
100
AcDbEntity
  8
CAD
  6
Continuous
 62
           5
100
AcDbCircle
 10
-25.528662779466
 20
-1.944351155579
 30
0.0
 40
0.1875
100
AcDbArc
 50
75.0
 51
163.125
1001
ACAD
1000
TCW40_DEV_WIDTH
1002
{
1040
-3.0
1002
}
  0
ARC
  5
2ED
100
AcDbEntity
  8
CAD
  6
Continuous
 62
           5
100
AcDbCircle
 10
-25.44739254903
 20
-1.641046526447
 30
0.0
 40
0.126504057949
100
AcDbArc
 50
-105.0
 51
-45.394083911348
1001
ACAD
1000
TCW40_DEV_WIDTH
1002
{
1040
-3.0
1002
}
  0
ARC
  5
2EE
100
AcDbEntity
  8
CAD
  6
Continuous
 62
           5
100
AcDbCircle
 10
-25.399253256915
 20
-1.461388242435
 30
0.0
 40
0.1875
100
AcDbArc
 50
166.875
 51
255.0
1001
ACAD
1000
TCW40_DEV_WIDTH
1002
{
1040
-3.0
1002
}
  0
ARC
  5
2EF
100
AcDbEntity
  8
CAD
  6
Continuous
 62
           5
100
AcDbCircle
 10
-25.480523487352
 20
-1.764692871567
 30
0.0
 40
0.126504057949
100
AcDbArc
 50
15.394083911348
 51
75.0
1001
ACAD
1000
TCW40_DEV_WIDTH
1002
{
1040
-3.0
1002
}
  0
ARC
  5
2F0
100
AcDbEntity
  8
CAD
  6
Continuous
 62
           5
100
AcDbCircle
 10
-25.399253256915
 20
-1.461388242435
 30
0.0
 40
0.1875
100
AcDbArc
 50
78.749999999999
 51
166.875
1001
ACAD
1000
TCW40_DEV_WIDTH
1002
{
1040
-3.0
1002
}
  0
ARC
  5
2F1
100
AcDbEntity
  8
CAD
  6
Continuous
 62
           5
100
AcDbCircle
 10
-25.337994104136
 20
-1.153417684412
 30
0.0
 40
0.126504057949
100
AcDbArc
 50
-101.25
 51
-41.644083911347
1001
ACAD
1000
TCW40_DEV_WIDTH
1002
{
1040
-3.0
1002
}
  0
ARC
  5
2F2
100
AcDbEntity
  8
CAD
  6
Continuous
 62
           5
100
AcDbCircle
 10
-25.301708095907
 20
-0.970995602233
 30
0.0
 40
0.1875
100
AcDbArc
 50
170.625
 51
258.749999999999
1001
ACAD
1000
TCW40_DEV_WIDTH
1002
{
1040
-3.0
1002
}
  0
ARC
  5
2F3
100
AcDbEntity
  8
CAD
  6
Continuous
 62
           5
100
AcDbCircle
 10
-25.362967248687
 20
-1.278966160256
 30
0.0
 40
0.126504057949
100
AcDbArc
 50
19.144083911348
 51
78.75
1001
ACAD
1000
TCW40_DEV_WIDTH
1002
{
1040
-3.0
1002
}
  0
ARC
  5
2F4
100
AcDbEntity
  8
CAD
  6
Continuous
 62
           5
100
AcDbCircle
 10
-25.301708095907
 20
-0.970995602233
 30
0.0
 40
0.1875
100
AcDbArc
 50
82.5
 51
170.625
1001
ACAD
1000
TCW40_DEV_WIDTH
1002
{
1040
-3.0
1002
}
  0
ARC
  5
2F5
100
AcDbEntity
  8
CAD
  6
Continuous
 62
           5
100
AcDbCircle
 10
-25.260722341881
 20
-0.659677892529
 30
0.0
 40
0.126504057949
100
AcDbArc
 50
-97.5
 51
-37.894083911347
1001
ACAD
1000
TCW40_DEV_WIDTH
1002
{
1040
-3.0
1002
}
  0
ARC
  5
2F6
100
AcDbEntity
  8
CAD
  6
Continuous
 62
           5
100
AcDbCircle
 10
-25.236444999797
 20
-0.475273171546
 30
0.0
 40
0.1875
100
AcDbArc
 50
174.375
 51
262.5
1001
ACAD
1000
TCW40_DEV_WIDTH
1002
{
1040
-3.0
1002
}
  0
ARC
  5
2F7
100
AcDbEntity
  8
CAD
  6
Continuous
 62
           5
100
AcDbCircle
 10
-25.277430753823
 20
-0.78659088125
 30
0.0
 40
0.126504057949
100
AcDbArc
 50
22.894083911347
 51
82.5
1001
ACAD
1000
TCW40_DEV_WIDTH
1002
{
1040
-3.0
1002
}
  0
ARC
  5
2F8
100
AcDbEntity
  8
CAD
  6
Continuous
 62
           5
100
AcDbCircle
 10
-25.236444999797
 20
-0.475273171546
 30
0.0
 40
0.1875
100
AcDbArc
 50
86.25
 51
174.375
1001
ACAD
1000
TCW40_DEV_WIDTH
1002
{
1040
-3.0
1002
}
  0
ARC
  5
2F9
100
AcDbEntity
  8
CAD
  6
Continuous
 62
           5
100
AcDbCircle
 10
-25.215908151816
 20
-0.161941420389
 30
0.0
 40
0.126504057949
100
AcDbArc
 50
-93.750000000001
 51
-34.144083911348
1001
ACAD
1000
TCW40_DEV_WIDTH
1002
{
1040
-3.0
1002
}
  0
ARC
  5
2FA
100
AcDbEntity
  8
CAD
  6
Continuous
 62
           5
100
AcDbCircle
 10
-25.203743435182
 20
0.023656290073
 30
0.0
 40
0.1875
100
AcDbArc
 50
178.125
 51
266.250000000001
1001
ACAD
1000
TCW40_DEV_WIDTH
1002
{
1040
-3.0
1002
}
  0
ARC
  5
2FB
100
AcDbEntity
  8
CAD
  6
Continuous
 62
           5
100
AcDbCircle
 10
-25.224280283163
 20
-0.289675461084
 30
0.0
 40
0.126504057949
100
AcDbArc
 50
26.644083911347
 51
86.249999999999
1001
ACAD
1000
TCW40_DEV_WIDTH
1002
{
1040
-3.0
1002
}
  0
CIRCLE
  5
2FC
100
AcDbEntity
  8
CAD
  6
Continuous
 62
           5
100
AcDbCircle
 10
-32.840453431918
 20
0.273656290073
 30
0.0
 40
6.0
1001
ACAD
1000
TCW40_DEV_WIDTH
1002
{
1040
-3.0
1002
}
  0
LINE
  5
2FD
100
AcDbEntity
  8
CAD
  6
Continuous
 62
           5
100
AcDbLine
 10
-9.1875
 20
-6.0
 30
0.0
 11
-8.8125
 21
-6.0
 31
0.0
1001
ACAD
1000
TCW40_DEV_WIDTH
1002
{
1040
-3.0
1002
}
  0
LINE
  5
2FE
100
AcDbEntity
  8
CAD
  6
Continuous
 62
           5
100
AcDbLine
 10
-8.8125
 20
-6.0
 30
0.0
 11
-8.8125
 21
6.0
 31
0.0
1001
ACAD
1000
TCW40_DEV_WIDTH
1002
{
1040
-3.0
1002
}
  0
LINE
  5
2FF
100
AcDbEntity
  8
CAD
  6
Continuous
 62
           5
100
AcDbLine
 10
-8.8125
 20
6.0
 30
0.0
 11
-9.1875
 21
6.0
 31
0.0
1001
ACAD
1000
TCW40_DEV_WIDTH
1002
{
1040
-3.0
1002
}
  0
LINE
  5
300
100
AcDbEntity
  8
CAD
  6
Continuous
 62
           5
100
AcDbLine
 10
-9.1875
 20
6.0
 30
0.0
 11
-9.1875
 21
-6.0
 31
0.0
1001
ACAD
1000
TCW40_DEV_WIDTH
1002
{
1040
-3.0
1002
}
  0
LINE
  5
301
100
AcDbEntity
  8
CAD
  6
Continuous
 62
           5
100
AcDbLine
 10
-9.1875
 20
-7.75
 30
0.0
 11
-8.8125
 21
-7.75
 31
0.0
1001
ACAD
1000
TCW40_DEV_WIDTH
1002
{
1040
-3.0
1002
}
  0
LINE
  5
302
100
AcDbEntity
  8
CAD
  6
Continuous
 62
           5
100
AcDbLine
 10
-8.8125
 20
-7.75
 30
0.0
 11
-8.8125
 21
7.75
 31
0.0
1001
ACAD
1000
TCW40_DEV_WIDTH
1002
{
1040
-3.0
1002
}
  0
LINE
  5
303
100
AcDbEntity
  8
CAD
  6
Continuous
 62
           5
100
AcDbLine
 10
-8.8125
 20
7.75
 30
0.0
 11
-9.1875
 21
7.75
 31
0.0
1001
ACAD
1000
TCW40_DEV_WIDTH
1002
{
1040
-3.0
1002
}
  0
LINE
  5
304
100
AcDbEntity
  8
CAD
  6
Continuous
 62
           5
100
AcDbLine
 10
-9.1875
 20
7.75
 30
0.0
 11
-9.1875
 21
-7.75
 31
0.0
1001
ACAD
1000
TCW40_DEV_WIDTH
1002
{
1040
-3.0
1002
}
  0
LINE
  5
305
100
AcDbEntity
  8
CAD
  6
Continuous
 62
           5
100
AcDbLine
 10
-8.819065026969
 20
-6.58613240909
 30
0.0
 11
-9.194065026969
 21
-6.58613240909
 31
0.0
1001
ACAD
1000
TCW40_DEV_WIDTH
1002
{
1040
-3.0
1002
}
  0
LINE
  5
306
100
AcDbEntity
  8
CAD
  6
Continuous
 62
           5
100
AcDbLine
 10
-8.819065026969
 20
-6.78613240909
 30
0.0
 11
-9.194065026969
 21
-6.78613240909
 31
0.0
1001
ACAD
1000
TCW40_DEV_WIDTH
1002
{
1040
-3.0
1002
}
  0
LINE
  5
307
100
AcDbEntity
  8
CAD
  6
Continuous
 62
           5
100
AcDbLine
 10
-8.819065026969
 20
-6.98613240909
 30
0.0
 11
-9.194065026969
 21
-6.98613240909
 31
0.0
1001
ACAD
1000
TCW40_DEV_WIDTH
1002
{
1040
-3.0
1002
}
  0
LINE
  5
308
100
AcDbEntity
  8
CAD
  6
Continuous
 62
           5
100
AcDbLine
 10
-8.819065026969
 20
-7.18613240909
 30
0.0
 11
-9.194065026969
 21
-7.18613240909
 31
0.0
1001
ACAD
1000
TCW40_DEV_WIDTH
1002
{
1040
-3.0
1002
}
  0
LINE
  5
309
100
AcDbEntity
  8
CAD
  6
Continuous
 62
           5
100
AcDbLine
 10
-8.819065026969
 20
-7.33613240909
 30
0.0
 11
-9.194065026969
 21
-7.33613240909
 31
0.0
1001
ACAD
1000
TCW40_DEV_WIDTH
1002
{
1040
-3.0
1002
}
  0
LINE
  5
30A
100
AcDbEntity
  8
CAD
  6
Continuous
 62
           5
100
AcDbLine
 10
-8.819065026969
 20
-7.48613240909
 30
0.0
 11
-9.194065026969
 21
-7.48613240909
 31
0.0
1001
ACAD
1000
TCW40_DEV_WIDTH
1002
{
1040
-3.0
1002
}
  0
LINE
  5
30B
100
AcDbEntity
  8
CAD
  6
Continuous
 62
           5
100
AcDbLine
 10
-8.819065026969
 20
-7.63613240909
 30
0.0
 11
-9.194065026969
 21
-7.63613240909
 31
0.0
1001
ACAD
1000
TCW40_DEV_WIDTH
1002
{
1040
-3.0
1002
}
  0
LINE
  5
30C
100
AcDbEntity
  8
CAD
  6
Continuous
 62
           5
100
AcDbLine
 10
-8.849119796685
 20
-6.345694251364
 30
0.0
 11
-9.224119796685
 21
-6.345694251364
 31
0.0
1001
ACAD
1000
TCW40_DEV_WIDTH
1002
{
1040
-3.0
1002
}
  0
LINE
  5
30D
100
AcDbEntity
  8
CAD
  6
Continuous
 62
           5
100
AcDbLine
 10
-8.8125
 20
5.5
 30
0.0
 11
-9.1875
 21
5.5
 31
0.0
1001
ACAD
1000
TCW40_DEV_WIDTH
1002
{
1040
-3.0
1002
}
  0
LINE
  5
30E
100
AcDbEntity
  8
CAD
  6
Continuous
 62
           5
100
AcDbLine
 10
-8.8125
 20
5.0
 30
0.0
 11
-9.1875
 21
5.0
 31
0.0
1001
ACAD
1000
TCW40_DEV_WIDTH
1002
{
1040
-3.0
1002
}
  0
LINE
  5
30F
100
AcDbEntity
  8
CAD
  6
Continuous
 62
           5
100
AcDbLine
 10
-8.8125
 20
4.5
 30
0.0
 11
-9.1875
 21
4.5
 31
0.0
1001
ACAD
1000
TCW40_DEV_WIDTH
1002
{
1040
-3.0
1002
}
  0
LINE
  5
310
100
AcDbEntity
  8
CAD
  6
Continuous
 62
           5
100
AcDbLine
 10
-8.8125
 20
4.0
 30
0.0
 11
-9.1875
 21
4.0
 31
0.0
1001
ACAD
1000
TCW40_DEV_WIDTH
1002
{
1040
-3.0
1002
}
  0
LINE
  5
311
100
AcDbEntity
  8
CAD
  6
Continuous
 62
           5
100
AcDbLine
 10
-8.8125
 20
3.5
 30
0.0
 11
-9.1875
 21
3.5
 31
0.0
1001
ACAD
1000
TCW40_DEV_WIDTH
1002
{
1040
-3.0
1002
}
  0
LINE
  5
312
100
AcDbEntity
  8
CAD
  6
Continuous
 62
           5
100
AcDbLine
 10
-8.8125
 20
3.0
 30
0.0
 11
-9.1875
 21
3.0
 31
0.0
1001
ACAD
1000
TCW40_DEV_WIDTH
1002
{
1040
-3.0
1002
}
  0
LINE
  5
313
100
AcDbEntity
  8
CAD
  6
Continuous
 62
           5
100
AcDbLine
 10
-8.8125
 20
2.5
 30
0.0
 11
-9.1875
 21
2.5
 31
0.0
1001
ACAD
1000
TCW40_DEV_WIDTH
1002
{
1040
-3.0
1002
}
  0
LINE
  5
314
100
AcDbEntity
  8
CAD
  6
Continuous
 62
           5
100
AcDbLine
 10
-8.8125
 20
2.0
 30
0.0
 11
-9.1875
 21
2.0
 31
0.0
1001
ACAD
1000
TCW40_DEV_WIDTH
1002
{
1040
-3.0
1002
}
  0
LINE
  5
315
100
AcDbEntity
  8
CAD
  6
Continuous
 62
           5
100
AcDbLine
 10
-8.8125
 20
1.5
 30
0.0
 11
-9.1875
 21
1.5
 31
0.0
1001
ACAD
1000
TCW40_DEV_WIDTH
1002
{
1040
-3.0
1002
}
  0
LINE
  5
316
100
AcDbEntity
  8
CAD
  6
Continuous
 62
           5
100
AcDbLine
 10
-8.8125
 20
1.0
 30
0.0
 11
-9.1875
 21
1.0
 31
0.0
1001
ACAD
1000
TCW40_DEV_WIDTH
1002
{
1040
-3.0
1002
}
  0
LINE
  5
317
100
AcDbEntity
  8
CAD
  6
Continuous
 62
           5
100
AcDbLine
 10
-8.8125
 20
0.5
 30
0.0
 11
-9.1875
 21
0.5
 31
0.0
1001
ACAD
1000
TCW40_DEV_WIDTH
1002
{
1040
-3.0
1002
}
  0
LINE
  5
318
100
AcDbEntity
  8
CAD
  6
Continuous
 62
           5
100
AcDbLine
 10
-8.8125
 20
-0.0
 30
0.0
 11
-9.1875
 21
-0.0
 31
0.0
1001
ACAD
1000
TCW40_DEV_WIDTH
1002
{
1040
-3.0
1002
}
  0
LINE
  5
319
100
AcDbEntity
  8
CAD
  6
Continuous
 62
           5
100
AcDbLine
 10
-8.8125
 20
-0.5
 30
0.0
 11
-9.1875
 21
-0.5
 31
0.0
1001
ACAD
1000
TCW40_DEV_WIDTH
1002
{
1040
-3.0
1002
}
  0
LINE
  5
31A
100
AcDbEntity
  8
CAD
  6
Continuous
 62
           5
100
AcDbLine
 10
-8.8125
 20
-1.0
 30
0.0
 11
-9.1875
 21
-1.0
 31
0.0
1001
ACAD
1000
TCW40_DEV_WIDTH
1002
{
1040
-3.0
1002
}
  0
LINE
  5
31B
100
AcDbEntity
  8
CAD
  6
Continuous
 62
           5
100
AcDbLine
 10
-8.8125
 20
-1.5
 30
0.0
 11
-9.1875
 21
-1.5
 31
0.0
1001
ACAD
1000
TCW40_DEV_WIDTH
1002
{
1040
-3.0
1002
}
  0
LINE
  5
31C
100
AcDbEntity
  8
CAD
  6
Continuous
 62
           5
100
AcDbLine
 10
-8.8125
 20
-2.0
 30
0.0
 11
-9.1875
 21
-2.0
 31
0.0
1001
ACAD
1000
TCW40_DEV_WIDTH
1002
{
1040
-3.0
1002
}
  0
LINE
  5
31D
100
AcDbEntity
  8
CAD
  6
Continuous
 62
           5
100
AcDbLine
 10
-8.8125
 20
-2.5
 30
0.0
 11
-9.1875
 21
-2.5
 31
0.0
1001
ACAD
1000
TCW40_DEV_WIDTH
1002
{
1040
-3.0
1002
}
  0
LINE
  5
31E
100
AcDbEntity
  8
CAD
  6
Continuous
 62
           5
100
AcDbLine
 10
-8.8125
 20
-3.0
 30
0.0
 11
-9.1875
 21
-3.0
 31
0.0
1001
ACAD
1000
TCW40_DEV_WIDTH
1002
{
1040
-3.0
1002
}
  0
LINE
  5
31F
100
AcDbEntity
  8
CAD
  6
Continuous
 62
           5
100
AcDbLine
 10
-8.8125
 20
-3.5
 30
0.0
 11
-9.1875
 21
-3.5
 31
0.0
1001
ACAD
1000
TCW40_DEV_WIDTH
1002
{
1040
-3.0
1002
}
  0
LINE
  5
320
100
AcDbEntity
  8
CAD
  6
Continuous
 62
           5
100
AcDbLine
 10
-8.8125
 20
-4.0
 30
0.0
 11
-9.1875
 21
-4.0
 31
0.0
1001
ACAD
1000
TCW40_DEV_WIDTH
1002
{
1040
-3.0
1002
}
  0
LINE
  5
321
100
AcDbEntity
  8
CAD
  6
Continuous
 62
           5
100
AcDbLine
 10
-8.8125
 20
-4.5
 30
0.0
 11
-9.1875
 21
-4.5
 31
0.0
1001
ACAD
1000
TCW40_DEV_WIDTH
1002
{
1040
-3.0
1002
}
  0
LINE
  5
322
100
AcDbEntity
  8
CAD
  6
Continuous
 62
           5
100
AcDbLine
 10
-8.8125
 20
-5.0
 30
0.0
 11
-9.1875
 21
-5.0
 31
0.0
1001
ACAD
1000
TCW40_DEV_WIDTH
1002
{
1040
-3.0
1002
}
  0
LINE
  5
323
100
AcDbEntity
  8
CAD
  6
Continuous
 62
           5
100
AcDbLine
 10
-8.8125
 20
-5.5
 30
0.0
 11
-9.1875
 21
-5.5
 31
0.0
1001
ACAD
1000
TCW40_DEV_WIDTH
1002
{
1040
-3.0
1002
}
  0
LINE
  5
324
100
AcDbEntity
  8
CAD
  6
Continuous
 62
           5
100
AcDbLine
 10
-9.1875
 20
-6.0
 30
0.0
 11
-8.8125
 21
-6.0
 31
0.0
1001
ACAD
1000
TCW40_DEV_WIDTH
1002
{
1040
-3.0
1002
}
  0
LINE
  5
325
100
AcDbEntity
  8
CAD
  6
Continuous
 62
           5
100
AcDbLine
 10
-8.819065026969
 20
-6.58613240909
 30
0.0
 11
-9.194065026969
 21
-6.58613240909
 31
0.0
1001
ACAD
1000
TCW40_DEV_WIDTH
1002
{
1040
-3.0
1002
}
  0
LINE
  5
326
100
AcDbEntity
  8
CAD
  6
Continuous
 62
           5
100
AcDbLine
 10
-8.819065026969
 20
-6.78613240909
 30
0.0
 11
-9.194065026969
 21
-6.78613240909
 31
0.0
1001
ACAD
1000
TCW40_DEV_WIDTH
1002
{
1040
-3.0
1002
}
  0
LINE
  5
327
100
AcDbEntity
  8
CAD
  6
Continuous
 62
           5
100
AcDbLine
 10
-8.819065026969
 20
-6.98613240909
 30
0.0
 11
-9.194065026969
 21
-6.98613240909
 31
0.0
1001
ACAD
1000
TCW40_DEV_WIDTH
1002
{
1040
-3.0
1002
}
  0
LINE
  5
328
100
AcDbEntity
  8
CAD
  6
Continuous
 62
           5
100
AcDbLine
 10
-8.819065026969
 20
-7.18613240909
 30
0.0
 11
-9.194065026969
 21
-7.18613240909
 31
0.0
1001
ACAD
1000
TCW40_DEV_WIDTH
1002
{
1040
-3.0
1002
}
  0
LINE
  5
329
100
AcDbEntity
  8
CAD
  6
Continuous
 62
           5
100
AcDbLine
 10
-8.819065026969
 20
-7.33613240909
 30
0.0
 11
-9.194065026969
 21
-7.33613240909
 31
0.0
1001
ACAD
1000
TCW40_DEV_WIDTH
1002
{
1040
-3.0
1002
}
  0
LINE
  5
32A
100
AcDbEntity
  8
CAD
  6
Continuous
 62
           5
100
AcDbLine
 10
-8.819065026969
 20
-7.48613240909
 30
0.0
 11
-9.194065026969
 21
-7.48613240909
 31
0.0
1001
ACAD
1000
TCW40_DEV_WIDTH
1002
{
1040
-3.0
1002
}
  0
LINE
  5
32B
100
AcDbEntity
  8
CAD
  6
Continuous
 62
           5
100
AcDbLine
 10
-8.819065026969
 20
-7.63613240909
 30
0.0
 11
-9.194065026969
 21
-7.63613240909
 31
0.0
1001
ACAD
1000
TCW40_DEV_WIDTH
1002
{
1040
-3.0
1002
}
  0
LINE
  5
32C
100
AcDbEntity
  8
CAD
  6
Continuous
 62
           5
100
AcDbLine
 10
-8.849119796685
 20
-6.345694251364
 30
0.0
 11
-9.224119796685
 21
-6.345694251364
 31
0.0
1001
ACAD
1000
TCW40_DEV_WIDTH
1002
{
1040
-3.0
1002
}
  0
LINE
  5
32D
100
AcDbEntity
  8
CAD
  6
Continuous
 62
           5
100
AcDbLine
 10
-9.1875
 20
-6.0
 30
0.0
 11
-8.8125
 21
-6.0
 31
0.0
1001
ACAD
1000
TCW40_DEV_WIDTH
1002
{
1040
-3.0
1002
}
  0
LINE
  5
32E
100
AcDbEntity
  8
CAD
  6
Continuous
 62
           5
100
AcDbLine
 10
-8.819065026969
 20
-6.58613240909
 30
0.0
 11
-9.194065026969
 21
-6.58613240909
 31
0.0
1001
ACAD
1000
TCW40_DEV_WIDTH
1002
{
1040
-3.0
1002
}
  0
LINE
  5
32F
100
AcDbEntity
  8
CAD
  6
Continuous
 62
           5
100
AcDbLine
 10
-8.819065026969
 20
-6.78613240909
 30
0.0
 11
-9.194065026969
 21
-6.78613240909
 31
0.0
1001
ACAD
1000
TCW40_DEV_WIDTH
1002
{
1040
-3.0
1002
}
  0
LINE
  5
330
100
AcDbEntity
  8
CAD
  6
Continuous
 62
           5
100
AcDbLine
 10
-8.819065026969
 20
-6.98613240909
 30
0.0
 11
-9.194065026969
 21
-6.98613240909
 31
0.0
1001
ACAD
1000
TCW40_DEV_WIDTH
1002
{
1040
-3.0
1002
}
  0
LINE
  5
331
100
AcDbEntity
  8
CAD
  6
Continuous
 62
           5
100
AcDbLine
 10
-8.819065026969
 20
-7.18613240909
 30
0.0
 11
-9.194065026969
 21
-7.18613240909
 31
0.0
1001
ACAD
1000
TCW40_DEV_WIDTH
1002
{
1040
-3.0
1002
}
  0
LINE
  5
332
100
AcDbEntity
  8
CAD
  6
Continuous
 62
           5
100
AcDbLine
 10
-8.819065026969
 20
-7.33613240909
 30
0.0
 11
-9.194065026969
 21
-7.33613240909
 31
0.0
1001
ACAD
1000
TCW40_DEV_WIDTH
1002
{
1040
-3.0
1002
}
  0
LINE
  5
333
100
AcDbEntity
  8
CAD
  6
Continuous
 62
           5
100
AcDbLine
 10
-8.819065026969
 20
-7.48613240909
 30
0.0
 11
-9.194065026969
 21
-7.48613240909
 31
0.0
1001
ACAD
1000
TCW40_DEV_WIDTH
1002
{
1040
-3.0
1002
}
  0
LINE
  5
334
100
AcDbEntity
  8
CAD
  6
Continuous
 62
           5
100
AcDbLine
 10
-8.819065026969
 20
-7.63613240909
 30
0.0
 11
-9.194065026969
 21
-7.63613240909
 31
0.0
1001
ACAD
1000
TCW40_DEV_WIDTH
1002
{
1040
-3.0
1002
}
  0
LINE
  5
335
100
AcDbEntity
  8
CAD
  6
Continuous
 62
           5
100
AcDbLine
 10
-8.849119796685
 20
-6.345694251364
 30
0.0
 11
-9.224119796685
 21
-6.345694251364
 31
0.0
1001
ACAD
1000
TCW40_DEV_WIDTH
1002
{
1040
-3.0
1002
}
  0
LINE
  5
336
100
AcDbEntity
  8
CAD
  6
Continuous
 62
           5
100
AcDbLine
 10
-9.1875
 20
6.0
 30
0.0
 11
-8.8125
 21
6.0
 31
0.0
1001
ACAD
1000
TCW40_DEV_WIDTH
1002
{
1040
-3.0
1002
}
  0
LINE
  5
337
100
AcDbEntity
  8
CAD
  6
Continuous
 62
           5
100
AcDbLine
 10
-8.819065026969
 20
6.58613240909
 30
0.0
 11
-9.194065026969
 21
6.58613240909
 31
0.0
1001
ACAD
1000
TCW40_DEV_WIDTH
1002
{
1040
-3.0
1002
}
  0
LINE
  5
338
100
AcDbEntity
  8
CAD
  6
Continuous
 62
           5
100
AcDbLine
 10
-8.819065026969
 20
6.78613240909
 30
0.0
 11
-9.194065026969
 21
6.78613240909
 31
0.0
1001
ACAD
1000
TCW40_DEV_WIDTH
1002
{
1040
-3.0
1002
}
  0
LINE
  5
339
100
AcDbEntity
  8
CAD
  6
Continuous
 62
           5
100
AcDbLine
 10
-8.819065026969
 20
6.98613240909
 30
0.0
 11
-9.194065026969
 21
6.98613240909
 31
0.0
1001
ACAD
1000
TCW40_DEV_WIDTH
1002
{
1040
-3.0
1002
}
  0
LINE
  5
33A
100
AcDbEntity
  8
CAD
  6
Continuous
 62
           5
100
AcDbLine
 10
-8.819065026969
 20
7.18613240909
 30
0.0
 11
-9.194065026969
 21
7.18613240909
 31
0.0
1001
ACAD
1000
TCW40_DEV_WIDTH
1002
{
1040
-3.0
1002
}
  0
LINE
  5
33B
100
AcDbEntity
  8
CAD
  6
Continuous
 62
           5
100
AcDbLine
 10
-8.819065026969
 20
7.33613240909
 30
0.0
 11
-9.194065026969
 21
7.33613240909
 31
0.0
1001
ACAD
1000
TCW40_DEV_WIDTH
1002
{
1040
-3.0
1002
}
  0
LINE
  5
33C
100
AcDbEntity
  8
CAD
  6
Continuous
 62
           5
100
AcDbLine
 10
-8.819065026969
 20
7.48613240909
 30
0.0
 11
-9.194065026969
 21
7.48613240909
 31
0.0
1001
ACAD
1000
TCW40_DEV_WIDTH
1002
{
1040
-3.0
1002
}
  0
LINE
  5
33D
100
AcDbEntity
  8
CAD
  6
Continuous
 62
           5
100
AcDbLine
 10
-8.819065026969
 20
7.63613240909
 30
0.0
 11
-9.194065026969
 21
7.63613240909
 31
0.0
1001
ACAD
1000
TCW40_DEV_WIDTH
1002
{
1040
-3.0
1002
}
  0
LINE
  5
33E
100
AcDbEntity
  8
CAD
  6
Continuous
 62
           5
100
AcDbLine
 10
-8.849119796685
 20
6.345694251364
 30
0.0
 11
-9.224119796685
 21
6.345694251364
 31
0.0
1001
ACAD
1000
TCW40_DEV_WIDTH
1002
{
1040
-3.0
1002
}
  0
LINE
  5
33F
100
AcDbEntity
  8
CAD
  6
Continuous
 62
           5
100
AcDbLine
 10
-9.1875
 20
8.4
 30
0.0
 11
-8.8125
 21
8.4
 31
0.0
1001
ACAD
1000
TCW40_DEV_WIDTH
1002
{
1040
-3.0
1002
}
  0
LINE
  5
340
100
AcDbEntity
  8
CAD
  6
Continuous
 62
           5
100
AcDbLine
 10
-8.8125
 20
8.4
 30
0.0
 11
-8.8125
 21
10.6
 31
0.0
1001
ACAD
1000
TCW40_DEV_WIDTH
1002
{
1040
-3.0
1002
}
  0
LINE
  5
341
100
AcDbEntity
  8
CAD
  6
Continuous
 62
           5
100
AcDbLine
 10
-8.8125
 20
10.6
 30
0.0
 11
-9.1875
 21
10.6
 31
0.0
1001
ACAD
1000
TCW40_DEV_WIDTH
1002
{
1040
-3.0
1002
}
  0
LINE
  5
342
100
AcDbEntity
  8
CAD
  6
Continuous
 62
           5
100
AcDbLine
 10
-9.1875
 20
10.6
 30
0.0
 11
-9.1875
 21
8.4
 31
0.0
1001
ACAD
1000
TCW40_DEV_WIDTH
1002
{
1040
-3.0
1002
}
  0
LINE
  5
343
100
AcDbEntity
  8
CAD
  6
Continuous
 62
           5
100
AcDbLine
 10
-8.8125
 20
10.4
 30
0.0
 11
-9.1875
 21
10.4
 31
0.0
1001
ACAD
1000
TCW40_DEV_WIDTH
1002
{
1040
-3.0
1002
}
  0
LINE
  5
344
100
AcDbEntity
  8
CAD
  6
Continuous
 62
           5
100
AcDbLine
 10
-8.8125
 20
10.0
 30
0.0
 11
-9.1875
 21
10.0
 31
0.0
1001
ACAD
1000
TCW40_DEV_WIDTH
1002
{
1040
-3.0
1002
}
  0
LINE
  5
345
100
AcDbEntity
  8
CAD
  6
Continuous
 62
           5
100
AcDbLine
 10
-8.8125
 20
9.6
 30
0.0
 11
-9.1875
 21
9.6
 31
0.0
1001
ACAD
1000
TCW40_DEV_WIDTH
1002
{
1040
-3.0
1002
}
  0
LINE
  5
346
100
AcDbEntity
  8
CAD
  6
Continuous
 62
           5
100
AcDbLine
 10
-8.8125
 20
9.2
 30
0.0
 11
-9.1875
 21
9.2
 31
0.0
1001
ACAD
1000
TCW40_DEV_WIDTH
1002
{
1040
-3.0
1002
}
  0
LINE
  5
347
100
AcDbEntity
  8
CAD
  6
Continuous
 62
           5
100
AcDbLine
 10
-8.8125
 20
8.9
 30
0.0
 11
-9.1875
 21
8.9
 31
0.0
1001
ACAD
1000
TCW40_DEV_WIDTH
1002
{
1040
-3.0
1002
}
  0
LINE
  5
348
100
AcDbEntity
  8
CAD
  6
Continuous
 62
           5
100
AcDbLine
 10
-8.8125
 20
8.7
 30
0.0
 11
-9.1875
 21
8.7
 31
0.0
1001
ACAD
1000
TCW40_DEV_WIDTH
1002
{
1040
-3.0
1002
}
  0
LINE
  5
349
100
AcDbEntity
  8
CAD
  6
Continuous
 62
           5
100
AcDbLine
 10
-8.8125
 20
8.5
 30
0.0
 11
-9.1875
 21
8.5
 31
0.0
1001
ACAD
1000
TCW40_DEV_WIDTH
1002
{
1040
-3.0
1002
}
  0
LINE
  5
34A
100
AcDbEntity
  8
CAD
  6
Continuous
 62
           5
100
AcDbLine
 10
-9.302618185845
 20
10.839387966092
 30
0.0
 11
-9.302618185845
 21
-7.929388034738
 31
0.0
1001
ACAD
1000
TCW40_DEV_WIDTH
1002
{
1040
-3.0
1002
}
  0
LINE
  5
34B
100
AcDbEntity
  8
CAD
  6
Continuous
 62
           5
100
AcDbLine
 10
-8.697832392491
 20
10.839387966092
 30
0.0
 11
-8.697832392491
 21
-7.929388034738
 31
0.0
1001
ACAD
1000
TCW40_DEV_WIDTH
1002
{
1040
-3.0
1002
}
  0
LINE
  5
34C
100
AcDbEntity
  8
CAD
  6
Continuous
 62
           5
100
AcDbLine
 10
-9.302618185845
 20
10.839387966092
 30
0.0
 11
-8.697832392491
 21
10.839387966092
 31
0.0
1001
ACAD
1000
TCW40_DEV_WIDTH
1002
{
1040
-3.0
1002
}
  0
LINE
  5
34D
100
AcDbEntity
  8
CAD
  6
Continuous
 62
           5
100
AcDbLine
 10
-9.302618185845
 20
-7.929388034738
 30
0.0
 11
-8.697832392491
 21
-7.929388034738
 31
0.0
1001
ACAD
1000
TCW40_DEV_WIDTH
1002
{
1040
-3.0
1002
}
  0
TEXT
  5
34E
100
AcDbEntity
  8
CAD
  6
Continuous
 62
           5
100
AcDbText
 10
-8.700127994289
 20
6.884543952951
 30
0.0
 40
0.196850396693
  1
96 T Sporcket
  7
Arial
 72
           1
 11
-7.841705562562
 21
6.884543952041
 31
0.0
100
AcDbText
1001
TCAD
1000
TCW40_TEXT
1002
{
1000
Arial
1070
           0
1070
        1026
1002
}
  0
TEXT
  5
34F
100
AcDbEntity
  8
CAD
  6
Continuous
 62
           5
100
AcDbText
 10
-8.254587303313
 20
9.762734241345
 30
0.0
 40
0.196850396693
  1
8:1 Ratio
  7
Arial
 72
           1
 11
-7.702662550558
 21
9.762734240434
 31
0.0
100
AcDbText
1001
TCAD
1000
TCW40_TEXT
1002
{
1000
Arial
1070
           0
1070
        1026
1002
}
  0
LINE
  5
350
100
AcDbEntity
  8
CAD
  6
Continuous
 62
           5
100
AcDbLine
 10
-16.426318261327
 20
9.265892509758
 30
0.0
 11
-8.626318261327
 21
9.265892509758
 31
0.0
1001
ACAD
1000
TCW40_DEV_WIDTH
1002
{
1040
-3.0
1002
}
  0
LINE
  5
351
100
AcDbEntity
  8
CAD
  6
Continuous
 62
           5
100
AcDbLine
 10
-8.626318261327
 20
9.265892509758
 30
0.0
 11
-8.626318261327
 21
9.765892509758
 31
0.0
1001
ACAD
1000
TCW40_DEV_WIDTH
1002
{
1040
-3.0
1002
}
  0
LINE
  5
352
100
AcDbEntity
  8
CAD
  6
Continuous
 62
           5
100
AcDbLine
 10
-8.626318261327
 20
9.765892509758
 30
0.0
 11
-16.426318261327
 21
9.765892509758
 31
0.0
1001
ACAD
1000
TCW40_DEV_WIDTH
1002
{
1040
-3.0
1002
}
  0
LINE
  5
353
100
AcDbEntity
  8
CAD
  6
Continuous
 62
           5
100
AcDbLine
 10
-16.426318261327
 20
9.765892509758
 30
0.0
 11
-16.426318261327
 21
9.265892509758
 31
0.0
1001
ACAD
1000
TCW40_DEV_WIDTH
1002
{
1040
-3.0
1002
}
  0
LINE
  5
354
100
AcDbEntity
  8
CAD
  6
Continuous
 62
           5
100
AcDbLine
 10
-9.879761147631
 20
4.033700468061
 30
0.0
 11
-9.504761147631
 21
4.033700468061
 31
0.0
1001
ACAD
1000
TCW40_DEV_WIDTH
1002
{
1040
-3.0
1002
}
  0
LINE
  5
355
100
AcDbEntity
  8
CAD
  6
Continuous
 62
           5
100
AcDbLine
 10
-13.704761147631
 20
11.033700468061
 30
0.0
 11
-14.079761147631
 21
11.033700468061
 31
0.0
1001
ACAD
1000
TCW40_DEV_WIDTH
1002
{
1040
-3.0
1002
}
  0
LINE
  5
356
100
AcDbEntity
  8
CAD
  6
Continuous
 62
           5
100
AcDbLine
 10
-13.704761147631
 20
4.033700468061
 30
0.0
 11
-13.704761147631
 21
11.033700468061
 31
0.0
1001
ACAD
1000
TCW40_DEV_WIDTH
1002
{
1040
-3.0
1002
}
  0
LINE
  5
357
100
AcDbEntity
  8
CAD
  6
Continuous
 62
           5
100
AcDbLine
 10
-14.079761147631
 20
4.033700468061
 30
0.0
 11
-13.704761147631
 21
4.033700468061
 31
0.0
1001
ACAD
1000
TCW40_DEV_WIDTH
1002
{
1040
-3.0
1002
}
  0
LINE
  5
358
100
AcDbEntity
  8
CAD
  6
Continuous
 62
           5
100
AcDbLine
 10
-14.079761147631
 20
11.033700468061
 30
0.0
 11
-14.079761147631
 21
4.033700468061
 31
0.0
1001
ACAD
1000
TCW40_DEV_WIDTH
1002
{
1040
-3.0
1002
}
  0
TEXT
  5
359
100
AcDbEntity
  8
CAD
  6
Continuous
 62
           5
100
AcDbText
 10
-13.776919122139
 20
7.463173051431
 30
0.0
 40
0.196850396693
  1
3/8" Plate
 50
90.000002504478
  7
Arial
 72
           1
 11
-13.776919147161
 21
8.056439977931
 31
0.0
100
AcDbText
1001
TCAD
1000
TCW40_TEXT
1002
{
1000
Arial
1070
           0
1070
        1026
1002
}
  0
LINE
  5
35A
100
AcDbEntity
  8
CAD
  6
Continuous
 62
           5
100
AcDbLine
 10
-13.677676493967
 20
10.016852610578
 30
0.0
 11
-13.677676493967
 21
9.016852610578
 31
0.0
1001
ACAD
1000
TCW40_DEV_WIDTH
1002
{
1040
-3.0
1002
}
  0
LINE
  5
35B
100
AcDbEntity
  8
CAD
  6
Continuous
 62
           5
100
AcDbLine
 10
-12.927676493967
 20
10.016852610578
 30
0.0
 11
-13.677676493967
 21
10.016852610578
 31
0.0
1001
ACAD
1000
TCW40_DEV_WIDTH
1002
{
1040
-3.0
1002
}
  0
LINE
  5
35C
100
AcDbEntity
  8
CAD
  6
Continuous
 62
           5
100
AcDbLine
 10
-12.927676493967
 20
9.016852610578
 30
0.0
 11
-12.927676493967
 21
10.016852610578
 31
0.0
1001
ACAD
1000
TCW40_DEV_WIDTH
1002
{
1040
-3.0
1002
}
  0
LINE
  5
35D
100
AcDbEntity
  8
CAD
  6
Continuous
 62
           5
100
AcDbLine
 10
-13.677676493967
 20
9.016852610578
 30
0.0
 11
-12.927676493967
 21
9.016852610578
 31
0.0
1001
ACAD
1000
TCW40_DEV_WIDTH
1002
{
1040
-3.0
1002
}
  0
ARC
  5
35E
100
AcDbEntity
  8
CAD
  6
Continuous
 62
           5
100
AcDbCircle
 10
-16.084051848108
 20
0.026589567076
 30
0.0
 40
0.5
100
AcDbArc
 50
-90.0
 51
0.0
1001
ACAD
1000
TCW40_DEV_WIDTH
1002
{
1040
-3.0
1002
}
  0
LINE
  5
35F
100
AcDbEntity
  8
CAD
  6
Continuous
 62
           5
100
AcDbLine
 10
-15.584051848108
 20
0.026589567076
 30
0.0
 11
-15.584051848108
 21
19.026589567076
 31
0.0
1001
ACAD
1000
TCW40_DEV_WIDTH
1002
{
1040
-3.0
1002
}
  0
ARC
  5
360
100
AcDbEntity
  8
CAD
  6
Continuous
 62
           5
100
AcDbCircle
 10
-16.084051848108
 20
19.026589567076
 30
0.0
 40
0.5
100
AcDbArc
 50
0.0
 51
90.0
1001
ACAD
1000
TCW40_DEV_WIDTH
1002
{
1040
-3.0
1002
}
  0
ARC
  5
361
100
AcDbEntity
  8
CAD
  6
Continuous
 62
           5
100
AcDbCircle
 10
-16.084051848108
 20
19.026589567076
 30
0.0
 40
0.5
100
AcDbArc
 50
90.0
 51
180.0
1001
ACAD
1000
TCW40_DEV_WIDTH
1002
{
1040
-3.0
1002
}
  0
LINE
  5
362
100
AcDbEntity
  8
CAD
  6
Continuous
 62
           5
100
AcDbLine
 10
-16.584051848108
 20
19.026589567076
 30
0.0
 11
-16.584051848108
 21
0.026589567076
 31
0.0
1001
ACAD
1000
TCW40_DEV_WIDTH
1002
{
1040
-3.0
1002
}
  0
ARC
  5
363
100
AcDbEntity
  8
CAD
  6
Continuous
 62
           5
100
AcDbCircle
 10
-16.084051848108
 20
0.026589567076
 30
0.0
 40
0.5
100
AcDbArc
 50
180.0
 51
270.0
1001
ACAD
1000
TCW40_DEV_WIDTH
1002
{
1040
-3.0
1002
}
  0
MTEXT
  5
364
100
AcDbEntity
  8
CAD
 62
           5
100
AcDbMText
 10
-17.486652764748
 20
3.832489374116
 30
0.0
 40
0.196850395203
 41
0.0
 71
           1
 72
           1
  1
20" Diameter\p\pHand Wheel
 73
           1
 44
1.0
1001
TCAD
1000
TCW_REFPOINT
1002
{
1010
-17.486652764748
1020
3.832489374116
1030
0.0
1002
}
1000
TCW40_TEXT
1002
{
1000
txt.shx
1070
           0
1070
         257
1002
}
  0
LINE
  5
365
100
AcDbEntity
  8
CAD
  6
Continuous
 62
           5
100
AcDbLine
 10
-22.176559132437
 20
-0.240796110457
 30
0.0
 11
-16.676559132437
 21
-0.240796110457
 31
0.0
1001
ACAD
1000
TCW40_DEV_WIDTH
1002
{
1040
-3.0
1002
}
  0
LINE
  5
366
100
AcDbEntity
  8
CAD
  6
Continuous
 62
           5
100
AcDbLine
 10
-16.676559132437
 20
0.759203889543
 30
0.0
 11
-22.176559132437
 21
0.759203889543
 31
0.0
1001
ACAD
1000
TCW40_DEV_WIDTH
1002
{
1040
-3.0
1002
}
  0
ARC
  5
367
100
AcDbEntity
  8
CAD
  6
Continuous
 62
           5
100
AcDbCircle
 10
-22.176559132437
 20
0.259203889543
 30
0.0
 40
0.5
100
AcDbArc
 50
90.0
 51
180.0
1001
ACAD
1000
TCW40_DEV_WIDTH
1002
{
1040
-3.0
1002
}
  0
ARC
  5
368
100
AcDbEntity
  8
CAD
  6
Continuous
 62
           5
100
AcDbCircle
 10
-22.176559132437
 20
0.259203889543
 30
0.0
 40
0.5
100
AcDbArc
 50
180.0
 51
270.0
1001
ACAD
1000
TCW40_DEV_WIDTH
1002
{
1040
-3.0
1002
}
  0
LINE
  5
369
100
AcDbEntity
  8
CAD
  6
Continuous
 62
           5
100
AcDbLine
 10
-16.676559132437
 20
0.759203889543
 30
0.0
 11
-16.676559132437
 21
-0.240796110457
 31
0.0
1001
ACAD
1000
TCW40_DEV_WIDTH
1002
{
1040
-3.0
1002
}
  0
LINE
  5
36A
100
AcDbEntity
  8
CAD
  6
Continuous
 62
           5
100
AcDbLine
 10
-22.176559132437
 20
0.759203889543
 30
0.0
 11
-22.176559132437
 21
-0.240796110457
 31
0.0
1001
ACAD
1000
TCW40_DEV_WIDTH
1002
{
1040
-3.0
1002
}
  0
TEXT
  5
36B
100
AcDbEntity
  8
CAD
  6
Continuous
 62
           5
100
AcDbText
 10
-20.723579266773
 20
0.091500470929
 30
0.0
 40
0.196850396693
  1
Removable Handel
  7
Arial
 72
           1
 11
-19.55078125
 21
0.091500470019
 31
0.0
100
AcDbText
1001
TCAD
1000
TCW40_TEXT
1002
{
1000
Arial
1070
           0
1070
        1026
1002
}
  0
LINE
  5
36C
100
AcDbEntity
  8
CAD
  6
Continuous
 62
           5
100
AcDbLine
 10
2.354299352425
 20
2.250966868413
 30
0.0
 11
2.622328939397
 21
2.250966868413
 31
0.0
1001
ACAD
1000
TCW40_DEV_WIDTH
1002
{
1040
-3.0
1002
}
  0
ARC
  5
36D
100
AcDbEntity
  8
CAD
  6
Continuous
 62
           5
100
AcDbCircle
 10
2.622328939397
 20
2.350966868413
 30
0.0
 40
0.1
100
AcDbArc
 50
-90.0
 51
0.0
1001
ACAD
1000
TCW40_DEV_WIDTH
1002
{
1040
-3.0
1002
}
  0
LINE
  5
36E
100
AcDbEntity
  8
CAD
  6
Continuous
 62
           5
100
AcDbLine
 10
2.722328939397
 20
2.350966868413
 30
0.0
 11
2.722328939397
 21
3.321040835845
 31
0.0
1001
ACAD
1000
TCW40_DEV_WIDTH
1002
{
1040
-3.0
1002
}
  0
ARC
  5
36F
100
AcDbEntity
  8
CAD
  6
Continuous
 62
           5
100
AcDbCircle
 10
2.622328939397
 20
3.321040835845
 30
0.0
 40
0.1
100
AcDbArc
 50
0.0
 51
90.0
1001
ACAD
1000
TCW40_DEV_WIDTH
1002
{
1040
-3.0
1002
}
  0
LINE
  5
370
100
AcDbEntity
  8
CAD
  6
Continuous
 62
           5
100
AcDbLine
 10
2.622328939397
 20
3.421040835845
 30
0.0
 11
2.354299352425
 21
3.421040835845
 31
0.0
1001
ACAD
1000
TCW40_DEV_WIDTH
1002
{
1040
-3.0
1002
}
  0
ARC
  5
371
100
AcDbEntity
  8
CAD
  6
Continuous
 62
           5
100
AcDbCircle
 10
2.354299352425
 20
3.321040835845
 30
0.0
 40
0.1
100
AcDbArc
 50
90.0
 51
180.0
1001
ACAD
1000
TCW40_DEV_WIDTH
1002
{
1040
-3.0
1002
}
  0
LINE
  5
372
100
AcDbEntity
  8
CAD
  6
Continuous
 62
           5
100
AcDbLine
 10
2.254299352425
 20
3.321040835845
 30
0.0
 11
2.254299352425
 21
2.350966868413
 31
0.0
1001
ACAD
1000
TCW40_DEV_WIDTH
1002
{
1040
-3.0
1002
}
  0
ARC
  5
373
100
AcDbEntity
  8
CAD
  6
Continuous
 62
           5
100
AcDbCircle
 10
2.354299352425
 20
2.350966868413
 30
0.0
 40
0.1
100
AcDbArc
 50
180.0
 51
270.0
1001
ACAD
1000
TCW40_DEV_WIDTH
1002
{
1040
-3.0
1002
}
  0
ARC
  5
374
100
AcDbEntity
  8
CAD
  6
Continuous
 62
           5
100
AcDbCircle
 10
2.610628199723
 20
0.970279586843
 30
0.0
 40
0.1
100
AcDbArc
 50
-90.0
 51
0.0
1001
ACAD
1000
TCW40_DEV_WIDTH
1002
{
1040
-3.0
1002
}
  0
LINE
  5
375
100
AcDbEntity
  8
CAD
  6
Continuous
 62
           5
100
AcDbLine
 10
2.710628199723
 20
0.970279586843
 30
0.0
 11
2.710628199723
 21
1.940353554275
 31
0.0
1001
ACAD
1000
TCW40_DEV_WIDTH
1002
{
1040
-3.0
1002
}
  0
ARC
  5
376
100
AcDbEntity
  8
CAD
  6
Continuous
 62
           5
100
AcDbCircle
 10
2.610628199723
 20
1.940353554275
 30
0.0
 40
0.1
100
AcDbArc
 50
0.0
 51
90.0
1001
ACAD
1000
TCW40_DEV_WIDTH
1002
{
1040
-3.0
1002
}
  0
LINE
  5
377
100
AcDbEntity
  8
CAD
  6
Continuous
 62
           5
100
AcDbLine
 10
2.610628199723
 20
2.040353554275
 30
0.0
 11
2.34259861275
 21
2.040353554275
 31
0.0
1001
ACAD
1000
TCW40_DEV_WIDTH
1002
{
1040
-3.0
1002
}
  0
ARC
  5
378
100
AcDbEntity
  8
CAD
  6
Continuous
 62
           5
100
AcDbCircle
 10
2.34259861275
 20
1.940353554275
 30
0.0
 40
0.1
100
AcDbArc
 50
90.0
 51
180.0
1001
ACAD
1000
TCW40_DEV_WIDTH
1002
{
1040
-3.0
1002
}
  0
LINE
  5
379
100
AcDbEntity
  8
CAD
  6
Continuous
 62
           5
100
AcDbLine
 10
2.24259861275
 20
1.940353554275
 30
0.0
 11
2.24259861275
 21
0.970279586843
 31
0.0
1001
ACAD
1000
TCW40_DEV_WIDTH
1002
{
1040
-3.0
1002
}
  0
ARC
  5
37A
100
AcDbEntity
  8
CAD
  6
Continuous
 62
           5
100
AcDbCircle
 10
2.34259861275
 20
0.970279586843
 30
0.0
 40
0.1
100
AcDbArc
 50
180.0
 51
270.0
1001
ACAD
1000
TCW40_DEV_WIDTH
1002
{
1040
-3.0
1002
}
  0
LINE
  5
37B
100
AcDbEntity
  8
CAD
  6
Continuous
 62
           5
100
AcDbLine
 10
2.34259861275
 20
0.870279586843
 30
0.0
 11
2.610628199723
 21
0.870279586843
 31
0.0
1001
ACAD
1000
TCW40_DEV_WIDTH
1002
{
1040
-3.0
1002
}
  0
ARC
  5
37C
100
AcDbEntity
  8
CAD
  6
Continuous
 62
           5
100
AcDbCircle
 10
2.60618233442
 20
-1.276028857047
 30
0.0
 40
0.1
100
AcDbArc
 50
-90.0
 51
0.0
1001
ACAD
1000
TCW40_DEV_WIDTH
1002
{
1040
-3.0
1002
}
  0
LINE
  5
37D
100
AcDbEntity
  8
CAD
  6
Continuous
 62
           5
100
AcDbLine
 10
2.70618233442
 20
-1.276028857047
 30
0.0
 11
2.70618233442
 21
-0.305954889615
 31
0.0
1001
ACAD
1000
TCW40_DEV_WIDTH
1002
{
1040
-3.0
1002
}
  0
ARC
  5
37E
100
AcDbEntity
  8
CAD
  6
Continuous
 62
           5
100
AcDbCircle
 10
2.60618233442
 20
-0.305954889615
 30
0.0
 40
0.1
100
AcDbArc
 50
0.0
 51
90.0
1001
ACAD
1000
TCW40_DEV_WIDTH
1002
{
1040
-3.0
1002
}
  0
LINE
  5
37F
100
AcDbEntity
  8
CAD
  6
Continuous
 62
           5
100
AcDbLine
 10
2.60618233442
 20
-0.205954889615
 30
0.0
 11
2.338152747447
 21
-0.205954889615
 31
0.0
1001
ACAD
1000
TCW40_DEV_WIDTH
1002
{
1040
-3.0
1002
}
  0
ARC
  5
380
100
AcDbEntity
  8
CAD
  6
Continuous
 62
           5
100
AcDbCircle
 10
2.338152747447
 20
-0.305954889615
 30
0.0
 40
0.1
100
AcDbArc
 50
90.0
 51
180.0
1001
ACAD
1000
TCW40_DEV_WIDTH
1002
{
1040
-3.0
1002
}
  0
LINE
  5
381
100
AcDbEntity
  8
CAD
  6
Continuous
 62
           5
100
AcDbLine
 10
2.238152747447
 20
-0.305954889615
 30
0.0
 11
2.238152747447
 21
-1.276028857047
 31
0.0
1001
ACAD
1000
TCW40_DEV_WIDTH
1002
{
1040
-3.0
1002
}
  0
ARC
  5
382
100
AcDbEntity
  8
CAD
  6
Continuous
 62
           5
100
AcDbCircle
 10
2.338152747447
 20
-1.276028857047
 30
0.0
 40
0.1
100
AcDbArc
 50
180.0
 51
270.0
1001
ACAD
1000
TCW40_DEV_WIDTH
1002
{
1040
-3.0
1002
}
  0
LINE
  5
383
100
AcDbEntity
  8
CAD
  6
Continuous
 62
           5
100
AcDbLine
 10
2.338152747447
 20
-1.376028857047
 30
0.0
 11
2.60618233442
 21
-1.376028857047
 31
0.0
1001
ACAD
1000
TCW40_DEV_WIDTH
1002
{
1040
-3.0
1002
}
  0
ARC
  5
384
100
AcDbEntity
  8
CAD
  6
Continuous
 62
           5
100
AcDbCircle
 10
2.601127822164
 20
-3.255794466556
 30
0.0
 40
0.1
100
AcDbArc
 50
-90.0
 51
0.0
1001
ACAD
1000
TCW40_DEV_WIDTH
1002
{
1040
-3.0
1002
}
  0
LINE
  5
385
100
AcDbEntity
  8
CAD
  6
Continuous
 62
           5
100
AcDbLine
 10
2.701127822164
 20
-3.255794466556
 30
0.0
 11
2.701127822164
 21
-2.285720499124
 31
0.0
1001
ACAD
1000
TCW40_DEV_WIDTH
1002
{
1040
-3.0
1002
}
  0
ARC
  5
386
100
AcDbEntity
  8
CAD
  6
Continuous
 62
           5
100
AcDbCircle
 10
2.601127822164
 20
-2.285720499124
 30
0.0
 40
0.1
100
AcDbArc
 50
0.0
 51
90.0
1001
ACAD
1000
TCW40_DEV_WIDTH
1002
{
1040
-3.0
1002
}
  0
LINE
  5
387
100
AcDbEntity
  8
CAD
  6
Continuous
 62
           5
100
AcDbLine
 10
2.601127822164
 20
-2.185720499124
 30
0.0
 11
2.333098235192
 21
-2.185720499124
 31
0.0
1001
ACAD
1000
TCW40_DEV_WIDTH
1002
{
1040
-3.0
1002
}
  0
ARC
  5
388
100
AcDbEntity
  8
CAD
  6
Continuous
 62
           5
100
AcDbCircle
 10
2.333098235192
 20
-2.285720499124
 30
0.0
 40
0.1
100
AcDbArc
 50
90.0
 51
180.0
1001
ACAD
1000
TCW40_DEV_WIDTH
1002
{
1040
-3.0
1002
}
  0
LINE
  5
389
100
AcDbEntity
  8
CAD
  6
Continuous
 62
           5
100
AcDbLine
 10
2.233098235192
 20
-2.285720499124
 30
0.0
 11
2.233098235192
 21
-3.255794466556
 31
0.0
1001
ACAD
1000
TCW40_DEV_WIDTH
1002
{
1040
-3.0
1002
}
  0
ARC
  5
38A
100
AcDbEntity
  8
CAD
  6
Continuous
 62
           5
100
AcDbCircle
 10
2.333098235192
 20
-3.255794466556
 30
0.0
 40
0.1
100
AcDbArc
 50
180.0
 51
270.0
1001
ACAD
1000
TCW40_DEV_WIDTH
1002
{
1040
-3.0
1002
}
  0
LINE
  5
38B
100
AcDbEntity
  8
CAD
  6
Continuous
 62
           5
100
AcDbLine
 10
2.333098235192
 20
-3.355794466556
 30
0.0
 11
2.601127822164
 21
-3.355794466556
 31
0.0
1001
ACAD
1000
TCW40_DEV_WIDTH
1002
{
1040
-3.0
1002
}
  0
TEXT
  5
38C
100
AcDbEntity
  8
CAD
  6
Continuous
 62
           5
100
AcDbText
 10
0.594841124406
 20
7.443442758585
 30
0.0
 40
0.196850396693
  1
52 ft, 3/4" line   1300 lbs working load
  7
Arial
 72
           1
 11
2.882194519043
 21
7.443442757674
 31
0.0
100
AcDbText
1001
TCAD
1000
TCW40_TEXT
1002
{
1000
Arial
1070
           0
1070
        1026
1002
}
  0
TEXT
  5
38D
100
AcDbEntity
  8
CAD
  6
Continuous
 62
           5
100
AcDbText
 10
6.483735241904
 20
-8.231010432537
 30
0.0
 40
0.196850396693
  1
3/8" Flange
 50
90.000002504478
  7
Arial
 72
           1
 11
6.483735212191
 21
-7.530415452371
 31
0.0
100
AcDbText
1001
TCAD
1000
TCW40_TEXT
1002
{
1000
Arial
1070
           0
1070
        1026
1002
}
  0
TEXT
  5
38E
100
AcDbEntity
  8
CAD
  6
Continuous
 62
           5
100
AcDbText
 10
-7.146608217818
 20
-7.793339702306
 30
0.0
 40
0.196850396693
  1
1/4" Flange
 50
90.000002504478
  7
Arial
 72
           1
 11
-7.146608247532
 21
-7.092744722141
 31
0.0
100
AcDbText
1001
TCAD
1000
TCW40_TEXT
1002
{
1000
Arial
1070
           0
1070
        1026
1002
}
  0
LINE
  5
38F
100
AcDbEntity
  8
CAD
  6
Continuous
 62
           5
100
AcDbLine
 10
-12.182372297463
 20
-9.851308951484
 30
0.0
 11
-11.435831253787
 21
-9.851308951484
 31
0.0
1001
ACAD
1000
TCW40_DEV_WIDTH
1002
{
1040
-3.0
1002
}
  0
LINE
  5
390
100
AcDbEntity
  8
CAD
  6
Continuous
 62
           5
100
AcDbLine
 10
-12.182372297463
 20
-8.351308951484
 30
0.0
 11
-12.182372297463
 21
-9.851308951484
 31
0.0
1001
ACAD
1000
TCW40_DEV_WIDTH
1002
{
1040
-3.0
1002
}
  0
LINE
  5
391
100
AcDbEntity
  8
CAD
  6
Continuous
 62
           5
100
AcDbLine
 10
-11.435831253787
 20
-9.851308951484
 30
0.0
 11
-11.435831253787
 21
-8.351308951484
 31
0.0
1001
ACAD
1000
TCW40_DEV_WIDTH
1002
{
1040
-3.0
1002
}
  0
LINE
  5
392
100
AcDbEntity
  8
CAD
  6
Continuous
 62
           5
100
AcDbLine
 10
-13.640049793489
 20
3.436234745364
 30
0.0
 11
-13.640049793489
 21
2.665025061756
 31
0.0
1001
ACAD
1000
TCW40_DEV_WIDTH
1002
{
1040
-3.0
1002
}
  0
LINE
  5
393
100
AcDbEntity
  8
CAD
  6
Continuous
 62
           5
100
AcDbLine
 10
-13.789688301283
 20
3.309615777905
 30
0.0
 11
-13.789688301283
 21
2.821531032483
 31
0.0
1001
ACAD
1000
TCW40_DEV_WIDTH
1002
{
1040
-3.0
1002
}
  0
LINE
  5
394
100
AcDbEntity
  8
CAD
  6
Continuous
 62
           5
100
AcDbLine
 10
-13.141959840946
 20
2.386482261602
 30
0.0
 11
-12.988824216416
 21
2.386482261602
 31
0.0
1001
ACAD
1000
TCW40_DEV_WIDTH
1002
{
1040
-3.0
1002
}
  0
ARC
  5
395
100
AcDbEntity
  8
CAD
  6
Continuous
 62
           5
100
AcDbCircle
 10
-12.988824216416
 20
2.436482261602
 30
0.0
 40
0.05
100
AcDbArc
 50
-90.0
 51
0.0
1001
ACAD
1000
TCW40_DEV_WIDTH
1002
{
1040
-3.0
1002
}
  0
LINE
  5
396
100
AcDbEntity
  8
CAD
  6
Continuous
 62
           5
100
AcDbLine
 10
-12.938824216416
 20
2.436482261602
 30
0.0
 11
-12.938824216416
 21
3.945701588973
 31
0.0
1001
ACAD
1000
TCW40_DEV_WIDTH
1002
{
1040
-3.0
1002
}
  0
ARC
  5
397
100
AcDbEntity
  8
CAD
  6
Continuous
 62
           5
100
AcDbCircle
 10
-12.988824216416
 20
3.945701588973
 30
0.0
 40
0.05
100
AcDbArc
 50
0.0
 51
90.0
1001
ACAD
1000
TCW40_DEV_WIDTH
1002
{
1040
-3.0
1002
}
  0
LINE
  5
398
100
AcDbEntity
  8
CAD
  6
Continuous
 62
           5
100
AcDbLine
 10
-12.988824216416
 20
3.995701588973
 30
0.0
 11
-13.141959840946
 21
3.995701588973
 31
0.0
1001
ACAD
1000
TCW40_DEV_WIDTH
1002
{
1040
-3.0
1002
}
  0
ARC
  5
399
100
AcDbEntity
  8
CAD
  6
Continuous
 62
           5
100
AcDbCircle
 10
-13.141959840946
 20
3.945701588973
 30
0.0
 40
0.05
100
AcDbArc
 50
90.0
 51
180.0
1001
ACAD
1000
TCW40_DEV_WIDTH
1002
{
1040
-3.0
1002
}
  0
LINE
  5
39A
100
AcDbEntity
  8
CAD
  6
Continuous
 62
           5
100
AcDbLine
 10
-13.191959840946
 20
3.945701588973
 30
0.0
 11
-13.191959840946
 21
2.436482261602
 31
0.0
1001
ACAD
1000
TCW40_DEV_WIDTH
1002
{
1040
-3.0
1002
}
  0
ARC
  5
39B
100
AcDbEntity
  8
CAD
  6
Continuous
 62
           5
100
AcDbCircle
 10
-13.141959840946
 20
2.436482261602
 30
0.0
 40
0.05
100
AcDbArc
 50
180.0
 51
270.0
1001
ACAD
1000
TCW40_DEV_WIDTH
1002
{
1040
-3.0
1002
}
  0
LINE
  5
39C
100
AcDbEntity
  8
CAD
  6
Continuous
 62
           5
100
AcDbLine
 10
-13.27579404678
 20
4.005606948086
 30
0.0
 11
-12.86952279772
 21
4.005606948086
 31
0.0
1001
ACAD
1000
TCW40_DEV_WIDTH
1002
{
1040
-3.0
1002
}
  0
ARC
  5
39D
100
AcDbEntity
  8
CAD
  6
Continuous
 62
           5
100
AcDbCircle
 10
-12.86952279772
 20
4.055606948086
 30
0.0
 40
0.05
100
AcDbArc
 50
-90.0
 51
0.0
1001
ACAD
1000
TCW40_DEV_WIDTH
1002
{
1040
-3.0
1002
}
  0
LINE
  5
39E
100
AcDbEntity
  8
CAD
  6
Continuous
 62
           5
100
AcDbLine
 10
-12.81952279772
 20
4.055606948086
 30
0.0
 11
-12.81952279772
 21
4.244904804692
 31
0.0
1001
ACAD
1000
TCW40_DEV_WIDTH
1002
{
1040
-3.0
1002
}
  0
ARC
  5
39F
100
AcDbEntity
  8
CAD
  6
Continuous
 62
           5
100
AcDbCircle
 10
-12.86952279772
 20
4.244904804692
 30
0.0
 40
0.05
100
AcDbArc
 50
0.0
 51
90.0
1001
ACAD
1000
TCW40_DEV_WIDTH
1002
{
1040
-3.0
1002
}
  0
LINE
  5
3A0
100
AcDbEntity
  8
CAD
  6
Continuous
 62
           5
100
AcDbLine
 10
-12.86952279772
 20
4.294904804692
 30
0.0
 11
-13.27579404678
 21
4.294904804692
 31
0.0
1001
ACAD
1000
TCW40_DEV_WIDTH
1002
{
1040
-3.0
1002
}
  0
ARC
  5
3A1
100
AcDbEntity
  8
CAD
  6
Continuous
 62
           5
100
AcDbCircle
 10
-13.27579404678
 20
4.244904804692
 30
0.0
 40
0.05
100
AcDbArc
 50
90.0
 51
180.0
1001
ACAD
1000
TCW40_DEV_WIDTH
1002
{
1040
-3.0
1002
}
  0
LINE
  5
3A2
100
AcDbEntity
  8
CAD
  6
Continuous
 62
           5
100
AcDbLine
 10
-13.32579404678
 20
4.244904804692
 30
0.0
 11
-13.32579404678
 21
4.055606948086
 31
0.0
1001
ACAD
1000
TCW40_DEV_WIDTH
1002
{
1040
-3.0
1002
}
  0
ARC
  5
3A3
100
AcDbEntity
  8
CAD
  6
Continuous
 62
           5
100
AcDbCircle
 10
-13.27579404678
 20
4.055606948086
 30
0.0
 40
0.05
100
AcDbArc
 50
180.0
 51
270.0
1001
ACAD
1000
TCW40_DEV_WIDTH
1002
{
1040
-3.0
1002
}
  0
TEXT
  5
3A4
100
AcDbEntity
  8
CAD
  6
Continuous
 62
           5
100
AcDbText
 10
-13.52130202768
 20
3.034787516866
 30
0.0
 40
0.196850396693
  1
Bushing
  7
Arial
 72
           1
 11
-13.022973969227
 21
3.034787515956
 31
0.0
100
AcDbText
1001
TCAD
1000
TCW40_TEXT
1002
{
1000
Arial
1070
           0
1070
        1026
1002
}
  0
LINE
  5
3A5
100
AcDbEntity
  8
CAD
  6
Continuous
 62
           5
100
AcDbLine
 10
-12.173161302746
 20
-0.635678898894
 30
0.0
 11
-11.015969876322
 21
-0.635678898894
 31
0.0
1001
ACAD
1000
TCW40_DEV_WIDTH
1002
{
1040
-3.0
1002
}
  0
LINE
  5
3A6
100
AcDbEntity
  8
CAD
  6
Continuous
 62
           5
100
AcDbLine
 10
-11.015969876322
 20
-0.635678898894
 30
0.0
 11
-11.015969876322
 21
2.835895380378
 31
0.0
1001
ACAD
1000
TCW40_DEV_WIDTH
1002
{
1040
-3.0
1002
}
  0
LINE
  5
3A7
100
AcDbEntity
  8
CAD
  6
Continuous
 62
           5
100
AcDbLine
 10
-11.015969876322
 20
2.835895380378
 30
0.0
 11
-12.173161302746
 21
2.835895380378
 31
0.0
1001
ACAD
1000
TCW40_DEV_WIDTH
1002
{
1040
-3.0
1002
}
  0
LINE
  5
3A8
100
AcDbEntity
  8
CAD
  6
Continuous
 62
           5
100
AcDbLine
 10
-12.173161302746
 20
2.835895380378
 30
0.0
 11
-12.173161302746
 21
-0.635678898894
 31
0.0
1001
ACAD
1000
TCW40_DEV_WIDTH
1002
{
1040
-3.0
1002
}
  0
LINE
  5
3A9
100
AcDbEntity
  8
CAD
  6
Continuous
 62
           5
100
AcDbLine
 10
-11.64345786595
 20
-0.382543274364
 30
0.0
 11
-11.563754429155
 21
-0.382543274364
 31
0.0
1001
ACAD
1000
TCW40_DEV_WIDTH
1002
{
1040
-3.0
1002
}
  0
ARC
  5
3AA
100
AcDbEntity
  8
CAD
  6
Continuous
 62
           5
100
AcDbCircle
 10
-11.563754429155
 20
-0.232543274364
 30
0.0
 40
0.15
100
AcDbArc
 50
-90.0
 51
0.0
1001
ACAD
1000
TCW40_DEV_WIDTH
1002
{
1040
-3.0
1002
}
  0
LINE
  5
3AB
100
AcDbEntity
  8
CAD
  6
Continuous
 62
           5
100
AcDbLine
 10
-11.413754429155
 20
-0.232543274364
 30
0.0
 11
-11.413754429155
 21
0.678891500174
 31
0.0
1001
ACAD
1000
TCW40_DEV_WIDTH
1002
{
1040
-3.0
1002
}
  0
ARC
  5
3AC
100
AcDbEntity
  8
CAD
  6
Continuous
 62
           5
100
AcDbCircle
 10
-11.563754429155
 20
0.678891500174
 30
0.0
 40
0.15
100
AcDbArc
 50
0.0
 51
90.0
1001
ACAD
1000
TCW40_DEV_WIDTH
1002
{
1040
-3.0
1002
}
  0
LINE
  5
3AD
100
AcDbEntity
  8
CAD
  6
Continuous
 62
           5
100
AcDbLine
 10
-11.563754429155
 20
0.828891500174
 30
0.0
 11
-11.64345786595
 21
0.828891500174
 31
0.0
1001
ACAD
1000
TCW40_DEV_WIDTH
1002
{
1040
-3.0
1002
}
  0
ARC
  5
3AE
100
AcDbEntity
  8
CAD
  6
Continuous
 62
           5
100
AcDbCircle
 10
-11.64345786595
 20
0.678891500174
 30
0.0
 40
0.15
100
AcDbArc
 50
90.0
 51
180.0
1001
ACAD
1000
TCW40_DEV_WIDTH
1002
{
1040
-3.0
1002
}
  0
LINE
  5
3AF
100
AcDbEntity
  8
CAD
  6
Continuous
 62
           5
100
AcDbLine
 10
-11.79345786595
 20
0.678891500174
 30
0.0
 11
-11.79345786595
 21
-0.232543274364
 31
0.0
1001
ACAD
1000
TCW40_DEV_WIDTH
1002
{
1040
-3.0
1002
}
  0
ARC
  5
3B0
100
AcDbEntity
  8
CAD
  6
Continuous
 62
           5
100
AcDbCircle
 10
-11.64345786595
 20
-0.232543274364
 30
0.0
 40
0.15
100
AcDbArc
 50
180.0
 51
270.0
1001
ACAD
1000
TCW40_DEV_WIDTH
1002
{
1040
-3.0
1002
}
  0
CIRCLE
  5
3B1
100
AcDbEntity
  8
CAD
  6
Continuous
 62
           5
100
AcDbCircle
 10
-11.612646705572
 20
0.358782483189
 30
0.0
 40
0.166699653149
1001
ACAD
1000
TCW40_DEV_WIDTH
1002
{
1040
-3.0
1002
}
  0
CIRCLE
  5
3B2
100
AcDbEntity
  8
CAD
  6
Continuous
 62
           5
100
AcDbCircle
 10
-6.343928485476
 20
6.364689807004
 30
0.0
 40
0.375
1001
ACAD
1000
TCW40_DEV_WIDTH
1002
{
1040
-3.0
1002
}
  0
CIRCLE
  5
3B3
100
AcDbEntity
  8
CAD
  6
Continuous
 62
           5
100
AcDbCircle
 10
-5.588689588549
 20
6.388291022533
 30
0.0
 40
0.375
1001
ACAD
1000
TCW40_DEV_WIDTH
1002
{
1040
-3.0
1002
}
  0
CIRCLE
  5
3B4
100
AcDbEntity
  8
CAD
  6
Continuous
 62
           5
100
AcDbCircle
 10
-4.833450691622
 20
6.411892238062
 30
0.0
 40
0.375
1001
ACAD
1000
TCW40_DEV_WIDTH
1002
{
1040
-3.0
1002
}
  0
CIRCLE
  5
3B5
100
AcDbEntity
  8
CAD
  6
Continuous
 62
           5
100
AcDbCircle
 10
-4.078211794695
 20
6.411892238062
 30
0.0
 40
0.375
1001
ACAD
1000
TCW40_DEV_WIDTH
1002
{
1040
-3.0
1002
}
  0
CIRCLE
  5
3B6
100
AcDbEntity
  8
CAD
  6
Continuous
 62
           5
100
AcDbCircle
 10
-3.322972897769
 20
6.411892238062
 30
0.0
 40
0.375
1001
ACAD
1000
TCW40_DEV_WIDTH
1002
{
1040
-3.0
1002
}
  0
CIRCLE
  5
3B7
100
AcDbEntity
  8
CAD
  6
Continuous
 62
           5
100
AcDbCircle
 10
-2.567734000842
 20
6.411892238062
 30
0.0
 40
0.375
1001
ACAD
1000
TCW40_DEV_WIDTH
1002
{
1040
-3.0
1002
}
  0
CIRCLE
  5
3B8
100
AcDbEntity
  8
CAD
  6
Continuous
 62
           5
100
AcDbCircle
 10
-1.836096319444
 20
6.435493453591
 30
0.0
 40
0.375
1001
ACAD
1000
TCW40_DEV_WIDTH
1002
{
1040
-3.0
1002
}
  0
CIRCLE
  5
3B9
100
AcDbEntity
  8
CAD
  6
Continuous
 62
           5
100
AcDbCircle
 10
-1.080857422517
 20
6.435493453591
 30
0.0
 40
0.375
1001
ACAD
1000
TCW40_DEV_WIDTH
1002
{
1040
-3.0
1002
}
  0
CIRCLE
  5
3BA
100
AcDbEntity
  8
CAD
  6
Continuous
 62
           5
100
AcDbCircle
 10
-0.278416094533
 20
6.411892238062
 30
0.0
 40
0.375
1001
ACAD
1000
TCW40_DEV_WIDTH
1002
{
1040
-3.0
1002
}
  0
CIRCLE
  5
3BB
100
AcDbEntity
  8
CAD
  6
Continuous
 62
           5
100
AcDbCircle
 10
0.500424017923
 20
6.411892238062
 30
0.0
 40
0.375
1001
ACAD
1000
TCW40_DEV_WIDTH
1002
{
1040
-3.0
1002
}
  0
CIRCLE
  5
3BC
100
AcDbEntity
  8
CAD
  6
Continuous
 62
           5
100
AcDbCircle
 10
1.232061699321
 20
6.435493453591
 30
0.0
 40
0.375
1001
ACAD
1000
TCW40_DEV_WIDTH
1002
{
1040
-3.0
1002
}
  0
CIRCLE
  5
3BD
100
AcDbEntity
  8
CAD
  6
Continuous
 62
           5
100
AcDbCircle
 10
1.963699380719
 20
6.435493453591
 30
0.0
 40
0.375
1001
ACAD
1000
TCW40_DEV_WIDTH
1002
{
1040
-3.0
1002
}
  0
CIRCLE
  5
3BE
100
AcDbEntity
  8
CAD
  6
Continuous
 62
           5
100
AcDbCircle
 10
2.718938277646
 20
6.411892238062
 30
0.0
 40
0.375
1001
ACAD
1000
TCW40_DEV_WIDTH
1002
{
1040
-3.0
1002
}
  0
CIRCLE
  5
3BF
100
AcDbEntity
  8
CAD
  6
Continuous
 62
           5
100
AcDbCircle
 10
3.450575959043
 20
6.411892238062
 30
0.0
 40
0.375
1001
ACAD
1000
TCW40_DEV_WIDTH
1002
{
1040
-3.0
1002
}
  0
CIRCLE
  5
3C0
100
AcDbEntity
  8
CAD
  6
Continuous
 62
           5
100
AcDbCircle
 10
4.20581485597
 20
6.388291022533
 30
0.0
 40
0.375
1001
ACAD
1000
TCW40_DEV_WIDTH
1002
{
1040
-3.0
1002
}
  0
CIRCLE
  5
3C1
100
AcDbEntity
  8
CAD
  6
Continuous
 62
           5
100
AcDbCircle
 10
4.937452537368
 20
6.388291022533
 30
0.0
 40
0.375
1001
ACAD
1000
TCW40_DEV_WIDTH
1002
{
1040
-3.0
1002
}
  0
CIRCLE
  5
3C2
100
AcDbEntity
  8
CAD
  6
Continuous
 62
           5
100
AcDbCircle
 10
5.692691434295
 20
6.435493453591
 30
0.0
 40
0.375
1001
ACAD
1000
TCW40_DEV_WIDTH
1002
{
1040
-3.0
1002
}
  0
CIRCLE
  5
3C3
100
AcDbEntity
  8
CAD
  6
Continuous
 62
           5
100
AcDbCircle
 10
6.229924253577
 20
-6.332764147577
 30
0.0
 40
0.375
1001
ACAD
1000
TCW40_DEV_WIDTH
1002
{
1040
-3.0
1002
}
  0
CIRCLE
  5
3C4
100
AcDbEntity
  8
CAD
  6
Continuous
 62
           5
100
AcDbCircle
 10
5.521887787708
 20
-6.403567794164
 30
0.0
 40
0.375
1001
ACAD
1000
TCW40_DEV_WIDTH
1002
{
1040
-3.0
1002
}
  0
CIRCLE
  5
3C5
100
AcDbEntity
  8
CAD
  6
Continuous
 62
           5
100
AcDbCircle
 10
4.79025010631
 20
-6.379966578635
 30
0.0
 40
0.375
1001
ACAD
1000
TCW40_DEV_WIDTH
1002
{
1040
-3.0
1002
}
  0
CIRCLE
  5
3C6
100
AcDbEntity
  8
CAD
  6
Continuous
 62
           5
100
AcDbCircle
 10
4.035011209383
 20
-6.403567794164
 30
0.0
 40
0.375
1001
ACAD
1000
TCW40_DEV_WIDTH
1002
{
1040
-3.0
1002
}
  0
CIRCLE
  5
3C7
100
AcDbEntity
  8
CAD
  6
Continuous
 62
           5
100
AcDbCircle
 10
3.303373527985
 20
-6.379966578635
 30
0.0
 40
0.375
1001
ACAD
1000
TCW40_DEV_WIDTH
1002
{
1040
-3.0
1002
}
  0
CIRCLE
  5
3C8
100
AcDbEntity
  8
CAD
  6
Continuous
 62
           5
100
AcDbCircle
 10
2.571735846588
 20
-6.379966578635
 30
0.0
 40
0.375
1001
ACAD
1000
TCW40_DEV_WIDTH
1002
{
1040
-3.0
1002
}
  0
CIRCLE
  5
3C9
100
AcDbEntity
  8
CAD
  6
Continuous
 62
           5
100
AcDbCircle
 10
1.816496949661
 20
-6.403567794164
 30
0.0
 40
0.375
1001
ACAD
1000
TCW40_DEV_WIDTH
1002
{
1040
-3.0
1002
}
  0
CIRCLE
  5
3CA
100
AcDbEntity
  8
CAD
  6
Continuous
 62
           5
100
AcDbCircle
 10
1.037656837205
 20
-6.379966578635
 30
0.0
 40
0.375
1001
ACAD
1000
TCW40_DEV_WIDTH
1002
{
1040
-3.0
1002
}
  0
CIRCLE
  5
3CB
100
AcDbEntity
  8
CAD
  6
Continuous
 62
           5
100
AcDbCircle
 10
0.258816724749
 20
-6.403567794164
 30
0.0
 40
0.375
1001
ACAD
1000
TCW40_DEV_WIDTH
1002
{
1040
-3.0
1002
}
  0
CIRCLE
  5
3CC
100
AcDbEntity
  8
CAD
  6
Continuous
 62
           5
100
AcDbCircle
 10
-0.520023387706
 20
-6.379966578635
 30
0.0
 40
0.375
1001
ACAD
1000
TCW40_DEV_WIDTH
1002
{
1040
-3.0
1002
}
  0
CIRCLE
  5
3CD
100
AcDbEntity
  8
CAD
  6
Continuous
 62
           5
100
AcDbCircle
 10
-1.275262284633
 20
-6.379966578635
 30
0.0
 40
0.375
1001
ACAD
1000
TCW40_DEV_WIDTH
1002
{
1040
-3.0
1002
}
  0
CIRCLE
  5
3CE
100
AcDbEntity
  8
CAD
  6
Continuous
 62
           5
100
AcDbCircle
 10
-2.054102397089
 20
-6.379966578635
 30
0.0
 40
0.375
1001
ACAD
1000
TCW40_DEV_WIDTH
1002
{
1040
-3.0
1002
}
  0
CIRCLE
  5
3CF
100
AcDbEntity
  8
CAD
  6
Continuous
 62
           5
100
AcDbCircle
 10
-2.785740078487
 20
-6.356365363106
 30
0.0
 40
0.375
1001
ACAD
1000
TCW40_DEV_WIDTH
1002
{
1040
-3.0
1002
}
  0
CIRCLE
  5
3D0
100
AcDbEntity
  8
CAD
  6
Continuous
 62
           5
100
AcDbCircle
 10
-3.564580190942
 20
-6.332764147577
 30
0.0
 40
0.375
1001
ACAD
1000
TCW40_DEV_WIDTH
1002
{
1040
-3.0
1002
}
  0
CIRCLE
  5
3D1
100
AcDbEntity
  8
CAD
  6
Continuous
 62
           5
100
AcDbCircle
 10
-4.319819087869
 20
-6.379966578635
 30
0.0
 40
0.375
1001
ACAD
1000
TCW40_DEV_WIDTH
1002
{
1040
-3.0
1002
}
  0
CIRCLE
  5
3D2
100
AcDbEntity
  8
CAD
  6
Continuous
 62
           5
100
AcDbCircle
 10
-5.075057984796
 20
-6.356365363106
 30
0.0
 40
0.375
1001
ACAD
1000
TCW40_DEV_WIDTH
1002
{
1040
-3.0
1002
}
  0
CIRCLE
  5
3D3
100
AcDbEntity
  8
CAD
  6
Continuous
 62
           5
100
AcDbCircle
 10
-5.830296881723
 20
-6.332764147577
 30
0.0
 40
0.375
1001
ACAD
1000
TCW40_DEV_WIDTH
1002
{
1040
-3.0
1002
}
  0
LINE
  5
3D4
100
AcDbEntity
  8
CAD
  6
Continuous
 62
           5
100
AcDbLine
 10
6.614323116914
 20
-7.916333773023
 30
0.0
 11
6.614323116914
 21
-6.0
 31
0.0
1001
ACAD
1000
TCW40_DEV_WIDTH
1002
{
1040
-3.0
1002
}
  0
LINE
  5
3D5
100
AcDbEntity
  8
CAD
  6
Continuous
 62
           5
100
AcDbLine
 10
6.989323116914
 20
7.883666226977
 30
0.0
 11
6.989323116914
 21
6.0
 31
0.0
1001
ACAD
1000
TCW40_DEV_WIDTH
1002
{
1040
-3.0
1002
}
  0
LINE
  5
3D6
100
AcDbEntity
  8
CAD
  6
Continuous
 62
           5
100
AcDbLine
 10
-6.85
 20
2.625
 30
0.0
 11
-6.85
 21
-2.625
 31
0.0
1001
ACAD
1000
TCW40_DEV_WIDTH
1002
{
1040
-3.0
1002
}
  0
LINE
  5
3D7
100
AcDbEntity
  8
CAD
  6
Continuous
 62
           5
100
AcDbLine
 10
-6.996719551821
 20
-6.0
 30
0.0
 11
-6.996719551821
 21
-7.846260301121
 31
0.0
1001
ACAD
1000
TCW40_DEV_WIDTH
1002
{
1040
-3.0
1002
}
  0
LINE
  5
3D8
100
AcDbEntity
  8
CAD
  6
Continuous
 62
           5
100
AcDbLine
 10
-6.746719551821
 20
-7.846260301121
 30
0.0
 11
-6.746719551821
 21
-6.0
 31
0.0
1001
ACAD
1000
TCW40_DEV_WIDTH
1002
{
1040
-3.0
1002
}
  0
CIRCLE
  5
3D9
100
AcDbEntity
  8
CAD
  6
Continuous
 62
           5
100
AcDbCircle
 10
-29.966543128651
 20
9.815354543866
 30
0.0
 40
0.25
1001
ACAD
1000
TCW40_DEV_WIDTH
1002
{
1040
-3.0
1002
}
  0
ARC
  5
3DA
100
AcDbEntity
  8
CAD
  6
Continuous
 62
           5
100
AcDbCircle
 10
-30.103293172698
 20
10.639243724243
 30
0.0
 40
0.18225284052
100
AcDbArc
 50
61.064315463165
 51
104.352533745893
1001
ACAD
1000
TCW40_DEV_WIDTH
1002
{
1040
-3.0
1002
}
  0
TEXT
  5
3DB
100
AcDbEntity
  8
CAD
  6
Continuous
 62
           5
100
AcDbText
 10
-30.12826056917
 20
10.21755068412
 30
0.0
 40
0.196850396693
  1
12
  7
Arial
 72
           1
 11
-29.974877064622
 21
10.217550683209
 31
0.0
100
AcDbText
1001
TCAD
1000
TCW40_TEXT
1002
{
1000
Arial
1070
           0
1070
        1026
1002
}
  0
ARC
  5
3DC
100
AcDbEntity
  8
CAD
  6
Continuous
 62
           5
100
AcDbCircle
 10
-30.143513605294
 20
10.796432467665
 30
0.0
 40
0.02
100
AcDbArc
 50
104.352533745894
 51
237.192414032281
1001
ACAD
1000
TCW40_DEV_WIDTH
1002
{
1040
-3.0
1002
}
  0
POINT
  5
3DD
100
AcDbEntity
  8
CAD
  6
Continuous
 62
           5
100
AcDbPoint
 10
-29.966543128651
 20
9.815354543866
 30
0.0
1001
TCAD
1000
TC25ExternalObject
1002
{
1000
TCW30POINT
1000

1070
           0
1071
 16711680
1040
1.0
1040
0.0
1000
Continuous
1000
CAD
1071
        1
1071
      242
1010
-29.966543128651
1020
9.815354543866
1030
0.0
1070
           3
1071
-2147483645
1070
           0
1000
$POINTSIZE
1070
           5
1040
1.75
1000
$POINTTYPE
1070
          18
1070
           5
1000
ExplodeScale
1070
           5
1040
1.0
1002
}
  0
ARC
  5
3DE
100
AcDbEntity
  8
CAD
  6
Continuous
 62
           5
100
AcDbCircle
 10
-29.75539722583
 20
10.688676186585
 30
0.0
 40
0.121804843576
100
AcDbArc
 50
-31.343258231999
 51
27.192414032287
1001
ACAD
1000
TCW40_DEV_WIDTH
1002
{
1040
-3.0
1002
}
  0
LINE
  5
3DF
100
AcDbEntity
  8
CAD
  6
Continuous
 62
           5
100
AcDbLine
 10
-30.015114229234
 20
10.798744733039
 30
0.0
 11
-29.951050267595
 21
10.739434520843
 31
0.0
1001
ACAD
1000
TCW40_DEV_WIDTH
1002
{
1040
-3.0
1002
}
  0
LINE
  5
3E0
100
AcDbEntity
  8
CAD
  6
Continuous
 62
           5
100
AcDbLine
 10
-29.951050267595
 20
10.739434520843
 30
0.0
 11
-29.804710144996
 21
10.603953300165
 31
0.0
1001
ACAD
1000
TCW40_DEV_WIDTH
1002
{
1040
-3.0
1002
}
  0
ARC
  5
3E1
100
AcDbEntity
  8
CAD
  6
Continuous
 62
           5
100
AcDbCircle
 10
-29.736774442655
 20
10.677334090209
 30
0.0
 40
0.1
100
AcDbArc
 50
-132.79341899429
 51
-31.343258231999
1001
ACAD
1000
TCW40_DEV_WIDTH
1002
{
1040
-3.0
1002
}
  0
ARC
  5
3E2
100
AcDbEntity
  8
CAD
  6
Continuous
 62
           5
100
AcDbCircle
 10
-30.496916730953
 20
10.460488481952
 30
0.0
 40
0.18225284052
100
AcDbArc
 50
91.064315463165
 51
134.352533745893
1001
ACAD
1000
TCW40_DEV_WIDTH
1002
{
1040
-3.0
1002
}
  0
ARC
  5
3E3
100
AcDbEntity
  8
CAD
  6
Continuous
 62
           5
100
AcDbCircle
 10
-30.610343019043
 20
10.576507710647
 30
0.0
 40
0.02
100
AcDbArc
 50
134.352533745896
 51
267.192414032283
1001
ACAD
1000
TCW40_DEV_WIDTH
1002
{
1040
-3.0
1002
}
  0
ARC
  5
3E4
100
AcDbEntity
  8
CAD
  6
Continuous
 62
           5
100
AcDbCircle
 10
-30.220346234262
 20
10.677246223545
 30
0.0
 40
0.121804843576
100
AcDbArc
 50
-1.343258231998
 51
57.192414032286
1001
ACAD
1000
TCW40_DEV_WIDTH
1002
{
1040
-3.0
1002
}
  0
LINE
  5
3E5
100
AcDbEntity
  8
CAD
  6
Continuous
 62
           5
100
AcDbLine
 10
-30.500302030232
 20
10.642709879231
 30
0.0
 11
-30.415165905887
 21
10.623377709584
 31
0.0
1001
ACAD
1000
TCW40_DEV_WIDTH
1002
{
1040
-3.0
1002
}
  0
LINE
  5
3E6
100
AcDbEntity
  8
CAD
  6
Continuous
 62
           5
100
AcDbLine
 10
-30.415165905887
 20
10.623377709584
 30
0.0
 11
-30.220691031785
 21
10.579217592041
 31
0.0
1001
ACAD
1000
TCW40_DEV_WIDTH
1002
{
1040
-3.0
1002
}
  0
ARC
  5
3E7
100
AcDbEntity
  8
CAD
  6
Continuous
 62
           5
100
AcDbCircle
 10
-30.198547382756
 20
10.67673507154
 30
0.0
 40
0.1
100
AcDbArc
 50
-102.793418994291
 51
-1.343258231999
1001
ACAD
1000
TCW40_DEV_WIDTH
1002
{
1040
-3.0
1002
}
  0
ARC
  5
3E8
100
AcDbEntity
  8
CAD
  6
Continuous
 62
           5
100
AcDbCircle
 10
-30.748427110784
 20
10.108870121941
 30
0.0
 40
0.18225284052
100
AcDbArc
 50
121.064315463164
 51
164.352533745894
1001
ACAD
1000
TCW40_DEV_WIDTH
1002
{
1040
-3.0
1002
}
  0
ARC
  5
3E9
100
AcDbEntity
  8
CAD
  6
Continuous
 62
           5
100
AcDbCircle
 10
-30.904666772074
 20
10.152632577273
 30
0.0
 40
0.02
100
AcDbArc
 50
164.352533745895
 51
297.19241403229
1001
ACAD
1000
TCW40_DEV_WIDTH
1002
{
1040
-3.0
1002
}
  0
ARC
  5
3EA
100
AcDbEntity
  8
CAD
  6
Continuous
 62
           5
100
AcDbCircle
 10
-30.617288905509
 20
10.434873080973
 30
0.0
 40
0.121804843576
100
AcDbArc
 50
28.656741768002
 51
87.192414032285
1001
ACAD
1000
TCW40_DEV_WIDTH
1002
{
1040
-3.0
1002
}
  0
LINE
  5
3EB
100
AcDbEntity
  8
CAD
  6
Continuous
 62
           5
100
AcDbLine
 10
-30.842469564598
 20
10.264985831458
 30
0.0
 11
-30.759073433313
 21
10.290811743606
 31
0.0
1001
ACAD
1000
TCW40_DEV_WIDTH
1002
{
1040
-3.0
1002
}
  0
LINE
  5
3EC
100
AcDbEntity
  8
CAD
  6
Continuous
 62
           5
100
AcDbLine
 10
-30.759073433313
 20
10.290811743606
 30
0.0
 11
-30.568573193171
 21
10.349805397031
 31
0.0
1001
ACAD
1000
TCW40_DEV_WIDTH
1002
{
1040
-3.0
1002
}
  0
ARC
  5
3ED
100
AcDbEntity
  8
CAD
  6
Continuous
 62
           5
100
AcDbCircle
 10
-30.598154970329
 20
10.445329836104
 30
0.0
 40
0.1
100
AcDbArc
 50
-72.79341899429
 51
28.656741768001
1001
ACAD
1000
TCW40_DEV_WIDTH
1002
{
1040
-3.0
1002
}
  0
ARC
  5
3EE
100
AcDbEntity
  8
CAD
  6
Continuous
 62
           5
100
AcDbCircle
 10
-30.790432309027
 20
9.678604499819
 30
0.0
 40
0.18225284052
100
AcDbArc
 50
151.064315463165
 51
194.352533745894
1001
ACAD
1000
TCW40_DEV_WIDTH
1002
{
1040
-3.0
1002
}
  0
ARC
  5
3EF
100
AcDbEntity
  8
CAD
  6
Continuous
 62
           5
100
AcDbCircle
 10
-30.947621052449
 20
9.638384067223
 30
0.0
 40
0.02
100
AcDbArc
 50
-165.647466254105
 51
-32.807585967716
1001
ACAD
1000
TCW40_DEV_WIDTH
1002
{
1040
-3.0
1002
}
  0
ARC
  5
3F0
100
AcDbEntity
  8
CAD
  6
Continuous
 62
           5
100
AcDbCircle
 10
-30.839864771369
 20
10.026500446687
 30
0.0
 40
0.121804843576
100
AcDbArc
 50
58.656741768001
 51
117.192414032285
1001
ACAD
1000
TCW40_DEV_WIDTH
1002
{
1040
-3.0
1002
}
  0
LINE
  5
3F1
100
AcDbEntity
  8
CAD
  6
Continuous
 62
           5
100
AcDbLine
 10
-30.949933317823
 20
9.766783443283
 30
0.0
 11
-30.890623105627
 21
9.830847404922
 31
0.0
1001
ACAD
1000
TCW40_DEV_WIDTH
1002
{
1040
-3.0
1002
}
  0
LINE
  5
3F2
100
AcDbEntity
  8
CAD
  6
Continuous
 62
           5
100
AcDbLine
 10
-30.890623105627
 20
9.830847404922
 30
0.0
 11
-30.75514188495
 21
9.977187527521
 31
0.0
1001
ACAD
1000
TCW40_DEV_WIDTH
1002
{
1040
-3.0
1002
}
  0
ARC
  5
3F3
100
AcDbEntity
  8
CAD
  6
Continuous
 62
           5
100
AcDbCircle
 10
-30.828522674994
 20
10.045123229862
 30
0.0
 40
0.1
100
AcDbArc
 50
-42.793418994292
 51
58.656741768
1001
ACAD
1000
TCW40_DEV_WIDTH
1002
{
1040
-3.0
1002
}
  0
ARC
  5
3F4
100
AcDbEntity
  8
CAD
  6
Continuous
 62
           5
100
AcDbCircle
 10
-30.611677066736
 20
9.284980941564
 30
0.0
 40
0.18225284052
100
AcDbArc
 50
-178.935684536835
 51
-135.647466254106
1001
ACAD
1000
TCW40_DEV_WIDTH
1002
{
1040
-3.0
1002
}
  0
ARC
  5
3F5
100
AcDbEntity
  8
CAD
  6
Continuous
 62
           5
100
AcDbCircle
 10
-30.727696295431
 20
9.171554653474
 30
0.0
 40
0.02
100
AcDbArc
 50
-135.647466254109
 51
-2.807585967711
1001
ACAD
1000
TCW40_DEV_WIDTH
1002
{
1040
-3.0
1002
}
  0
ARC
  5
3F6
100
AcDbEntity
  8
CAD
  6
Continuous
 62
           5
100
AcDbCircle
 10
-30.82843480833
 20
9.561551438255
 30
0.0
 40
0.121804843576
100
AcDbArc
 50
88.656741768
 51
147.192414032286
1001
ACAD
1000
TCW40_DEV_WIDTH
1002
{
1040
-3.0
1002
}
  0
LINE
  5
3F7
100
AcDbEntity
  8
CAD
  6
Continuous
 62
           5
100
AcDbLine
 10
-30.793898464015
 20
9.281595642285
 30
0.0
 11
-30.774566294368
 21
9.36673176663
 31
0.0
1001
ACAD
1000
TCW40_DEV_WIDTH
1002
{
1040
-3.0
1002
}
  0
LINE
  5
3F8
100
AcDbEntity
  8
CAD
  6
Continuous
 62
           5
100
AcDbLine
 10
-30.774566294368
 20
9.36673176663
 30
0.0
 11
-30.730406176826
 21
9.561206640732
 31
0.0
1001
ACAD
1000
TCW40_DEV_WIDTH
1002
{
1040
-3.0
1002
}
  0
ARC
  5
3F9
100
AcDbEntity
  8
CAD
  6
Continuous
 62
           5
100
AcDbCircle
 10
-30.827923656324
 20
9.583350289761
 30
0.0
 40
0.1
100
AcDbArc
 50
-12.793418994291
 51
88.656741768
1001
ACAD
1000
TCW40_DEV_WIDTH
1002
{
1040
-3.0
1002
}
  0
ARC
  5
3FA
100
AcDbEntity
  8
CAD
  6
Continuous
 62
           5
100
AcDbCircle
 10
-30.260058706725
 20
9.033470561733
 30
0.0
 40
0.18225284052
100
AcDbArc
 50
-148.935684536835
 51
-105.647466254106
1001
ACAD
1000
TCW40_DEV_WIDTH
1002
{
1040
-3.0
1002
}
  0
ARC
  5
3FB
100
AcDbEntity
  8
CAD
  6
Continuous
 62
           5
100
AcDbCircle
 10
-30.303821162057
 20
8.877230900443
 30
0.0
 40
0.02
100
AcDbArc
 50
-105.647466254105
 51
27.192414032284
1001
ACAD
1000
TCW40_DEV_WIDTH
1002
{
1040
-3.0
1002
}
  0
ARC
  5
3FC
100
AcDbEntity
  8
CAD
  6
Continuous
 62
           5
100
AcDbCircle
 10
-30.586061665757
 20
9.164608767008
 30
0.0
 40
0.121804843576
100
AcDbArc
 50
118.656741768001
 51
177.192414032286
1001
ACAD
1000
TCW40_DEV_WIDTH
1002
{
1040
-3.0
1002
}
  0
LINE
  5
3FD
100
AcDbEntity
  8
CAD
  6
Continuous
 62
           5
100
AcDbLine
 10
-30.416174416242
 20
8.939428107919
 30
0.0
 11
-30.44200032839
 21
9.022824239204
 31
0.0
1001
ACAD
1000
TCW40_DEV_WIDTH
1002
{
1040
-3.0
1002
}
  0
LINE
  5
3FE
100
AcDbEntity
  8
CAD
  6
Continuous
 62
           5
100
AcDbLine
 10
-30.44200032839
 20
9.022824239204
 30
0.0
 11
-30.500993981815
 21
9.213324479346
 31
0.0
1001
ACAD
1000
TCW40_DEV_WIDTH
1002
{
1040
-3.0
1002
}
  0
ARC
  5
3FF
100
AcDbEntity
  8
CAD
  6
Continuous
 62
           5
100
AcDbCircle
 10
-30.596518420888
 20
9.183742702189
 30
0.0
 40
0.1
100
AcDbArc
 50
17.206581005709
 51
118.656741768001
1001
ACAD
1000
TCW40_DEV_WIDTH
1002
{
1040
-3.0
1002
}
  0
ARC
  5
400
100
AcDbEntity
  8
CAD
  6
Continuous
 62
           5
100
AcDbCircle
 10
-29.829793084603
 20
8.99146536349
 30
0.0
 40
0.18225284052
100
AcDbArc
 50
-118.935684536835
 51
-75.647466254107
1001
ACAD
1000
TCW40_DEV_WIDTH
1002
{
1040
-3.0
1002
}
  0
ARC
  5
401
100
AcDbEntity
  8
CAD
  6
Continuous
 62
           5
100
AcDbCircle
 10
-29.789572652007
 20
8.834276620068
 30
0.0
 40
0.02
100
AcDbArc
 50
-75.647466254106
 51
57.192414032281
1001
ACAD
1000
TCW40_DEV_WIDTH
1002
{
1040
-3.0
1002
}
  0
ARC
  5
402
100
AcDbEntity
  8
CAD
  6
Continuous
 62
           5
100
AcDbCircle
 10
-30.177689031471
 20
8.942032901148
 30
0.0
 40
0.121804843576
100
AcDbArc
 50
148.656741768001
 51
207.192414032286
1001
ACAD
1000
TCW40_DEV_WIDTH
1002
{
1040
-3.0
1002
}
  0
LINE
  5
403
100
AcDbEntity
  8
CAD
  6
Continuous
 62
           5
100
AcDbLine
 10
-29.917972028067
 20
8.831964354694
 30
0.0
 11
-29.982035989706
 21
8.89127456689
 31
0.0
1001
ACAD
1000
TCW40_DEV_WIDTH
1002
{
1040
-3.0
1002
}
  0
LINE
  5
404
100
AcDbEntity
  8
CAD
  6
Continuous
 62
           5
100
AcDbLine
 10
-29.982035989706
 20
8.89127456689
 30
0.0
 11
-30.128376112305
 21
9.026755787567
 31
0.0
1001
ACAD
1000
TCW40_DEV_WIDTH
1002
{
1040
-3.0
1002
}
  0
ARC
  5
405
100
AcDbEntity
  8
CAD
  6
Continuous
 62
           5
100
AcDbCircle
 10
-30.196311814646
 20
8.953374997524
 30
0.0
 40
0.1
100
AcDbArc
 50
47.20658100571
 51
148.656741768001
1001
ACAD
1000
TCW40_DEV_WIDTH
1002
{
1040
-3.0
1002
}
  0
ARC
  5
406
100
AcDbEntity
  8
CAD
  6
Continuous
 62
           5
100
AcDbCircle
 10
-29.436169526348
 20
9.170220605781
 30
0.0
 40
0.18225284052
100
AcDbArc
 50
-88.935684536835
 51
-45.647466254107
1001
ACAD
1000
TCW40_DEV_WIDTH
1002
{
1040
-3.0
1002
}
  0
ARC
  5
407
100
AcDbEntity
  8
CAD
  6
Continuous
 62
           5
100
AcDbCircle
 10
-29.322743238259
 20
9.054201377086
 30
0.0
 40
0.02
100
AcDbArc
 50
-45.647466254109
 51
87.192414032283
1001
ACAD
1000
TCW40_DEV_WIDTH
1002
{
1040
-3.0
1002
}
  0
ARC
  5
408
100
AcDbEntity
  8
CAD
  6
Continuous
 62
           5
100
AcDbCircle
 10
-29.712740023039
 20
8.953462864188
 30
0.0
 40
0.121804843576
100
AcDbArc
 50
178.656741768001
 51
237.192414032286
1001
ACAD
1000
TCW40_DEV_WIDTH
1002
{
1040
-3.0
1002
}
  0
LINE
  5
409
100
AcDbEntity
  8
CAD
  6
Continuous
 62
           5
100
AcDbLine
 10
-29.432784227069
 20
8.987999208502
 30
0.0
 11
-29.517920351414
 21
9.007331378149
 31
0.0
1001
ACAD
1000
TCW40_DEV_WIDTH
1002
{
1040
-3.0
1002
}
  0
LINE
  5
40A
100
AcDbEntity
  8
CAD
  6
Continuous
 62
           5
100
AcDbLine
 10
-29.517920351414
 20
9.007331378149
 30
0.0
 11
-29.712395225516
 21
9.051491495691
 31
0.0
1001
ACAD
1000
TCW40_DEV_WIDTH
1002
{
1040
-3.0
1002
}
  0
ARC
  5
40B
100
AcDbEntity
  8
CAD
  6
Continuous
 62
           5
100
AcDbCircle
 10
-29.734538874545
 20
8.953974016193
 30
0.0
 40
0.1
100
AcDbArc
 50
77.206581005709
 51
178.656741768001
1001
ACAD
1000
TCW40_DEV_WIDTH
1002
{
1040
-3.0
1002
}
  0
ARC
  5
40C
100
AcDbEntity
  8
CAD
  6
Continuous
 62
           5
100
AcDbCircle
 10
-29.184659146518
 20
9.521838965792
 30
0.0
 40
0.18225284052
100
AcDbArc
 50
-58.935684536836
 51
-15.647466254106
1001
ACAD
1000
TCW40_DEV_WIDTH
1002
{
1040
-3.0
1002
}
  0
ARC
  5
40D
100
AcDbEntity
  8
CAD
  6
Continuous
 62
           5
100
AcDbCircle
 10
-29.028419485227
 20
9.47807651046
 30
0.0
 40
0.02
100
AcDbArc
 50
-15.647466254105
 51
117.19241403229
1001
ACAD
1000
TCW40_DEV_WIDTH
1002
{
1040
-3.0
1002
}
  0
ARC
  5
40E
100
AcDbEntity
  8
CAD
  6
Continuous
 62
           5
100
AcDbCircle
 10
-29.315797351792
 20
9.19583600676
 30
0.0
 40
0.121804843576
100
AcDbArc
 50
-151.343258231998
 51
-92.807585967715
1001
ACAD
1000
TCW40_DEV_WIDTH
1002
{
1040
-3.0
1002
}
  0
LINE
  5
40F
100
AcDbEntity
  8
CAD
  6
Continuous
 62
           5
100
AcDbLine
 10
-29.090616692703
 20
9.365723256275
 30
0.0
 11
-29.174012823988
 21
9.339897344127
 31
0.0
1001
ACAD
1000
TCW40_DEV_WIDTH
1002
{
1040
-3.0
1002
}
  0
LINE
  5
410
100
AcDbEntity
  8
CAD
  6
Continuous
 62
           5
100
AcDbLine
 10
-29.174012823988
 20
9.339897344127
 30
0.0
 11
-29.36451306413
 21
9.280903690702
 31
0.0
1001
ACAD
1000
TCW40_DEV_WIDTH
1002
{
1040
-3.0
1002
}
  0
ARC
  5
411
100
AcDbEntity
  8
CAD
  6
Continuous
 62
           5
100
AcDbCircle
 10
-29.334931286973
 20
9.185379251629
 30
0.0
 40
0.1
100
AcDbArc
 50
107.20658100571
 51
208.656741768001
1001
ACAD
1000
TCW40_DEV_WIDTH
1002
{
1040
-3.0
1002
}
  0
ARC
  5
412
100
AcDbEntity
  8
CAD
  6
Continuous
 62
           5
100
AcDbCircle
 10
-29.142653948274
 20
9.952104587914
 30
0.0
 40
0.18225284052
100
AcDbArc
 50
-28.935684536835
 51
14.352533745894
1001
ACAD
1000
TCW40_DEV_WIDTH
1002
{
1040
-3.0
1002
}
  0
ARC
  5
413
100
AcDbEntity
  8
CAD
  6
Continuous
 62
           5
100
AcDbCircle
 10
-28.985465204852
 20
9.99232502051
 30
0.0
 40
0.02
100
AcDbArc
 50
14.352533745895
 51
147.192414032284
1001
ACAD
1000
TCW40_DEV_WIDTH
1002
{
1040
-3.0
1002
}
  0
ARC
  5
414
100
AcDbEntity
  8
CAD
  6
Continuous
 62
           5
100
AcDbCircle
 10
-29.093221485932
 20
9.604208641046
 30
0.0
 40
0.121804843576
100
AcDbArc
 50
-121.343258231998
 51
-62.807585967714
1001
ACAD
1000
TCW40_DEV_WIDTH
1002
{
1040
-3.0
1002
}
  0
LINE
  5
415
100
AcDbEntity
  8
CAD
  6
Continuous
 62
           5
100
AcDbLine
 10
-28.983152939478
 20
9.86392564445
 30
0.0
 11
-29.042463151674
 21
9.799861682811
 31
0.0
1001
ACAD
1000
TCW40_DEV_WIDTH
1002
{
1040
-3.0
1002
}
  0
LINE
  5
416
100
AcDbEntity
  8
CAD
  6
Continuous
 62
           5
100
AcDbLine
 10
-29.042463151674
 20
9.799861682811
 30
0.0
 11
-29.177944372352
 21
9.653521560212
 31
0.0
1001
ACAD
1000
TCW40_DEV_WIDTH
1002
{
1040
-3.0
1002
}
  0
ARC
  5
417
100
AcDbEntity
  8
CAD
  6
Continuous
 62
           5
100
AcDbCircle
 10
-29.104563582308
 20
9.585585857871
 30
0.0
 40
0.1
100
AcDbArc
 50
137.20658100571
 51
238.656741768
1001
ACAD
1000
TCW40_DEV_WIDTH
1002
{
1040
-3.0
1002
}
  0
ARC
  5
418
100
AcDbEntity
  8
CAD
  6
Continuous
 62
           5
100
AcDbCircle
 10
-29.321409190565
 20
10.345728146169
 30
0.0
 40
0.18225284052
100
AcDbArc
 50
1.064315463165
 51
44.352533745894
1001
ACAD
1000
TCW40_DEV_WIDTH
1002
{
1040
-3.0
1002
}
  0
ARC
  5
419
100
AcDbEntity
  8
CAD
  6
Continuous
 62
           5
100
AcDbCircle
 10
-29.205389961871
 20
10.459154434259
 30
0.0
 40
0.02
100
AcDbArc
 50
44.352533745896
 51
177.192414032288
1001
ACAD
1000
TCW40_DEV_WIDTH
1002
{
1040
-3.0
1002
}
  0
ARC
  5
41A
100
AcDbEntity
  8
CAD
  6
Continuous
 62
           5
100
AcDbCircle
 10
-29.104651448972
 20
10.069157649478
 30
0.0
 40
0.121804843576
100
AcDbArc
 50
-91.343258232
 51
-32.807585967714
1001
ACAD
1000
TCW40_DEV_WIDTH
1002
{
1040
-3.0
1002
}
  0
LINE
  5
41B
100
AcDbEntity
  8
CAD
  6
Continuous
 62
           5
100
AcDbLine
 10
-29.139187793286
 20
10.349113445448
 30
0.0
 11
-29.158519962933
 21
10.263977321103
 31
0.0
1001
ACAD
1000
TCW40_DEV_WIDTH
1002
{
1040
-3.0
1002
}
  0
LINE
  5
41C
100
AcDbEntity
  8
CAD
  6
Continuous
 62
           5
100
AcDbLine
 10
-29.158519962933
 20
10.263977321103
 30
0.0
 11
-29.202680080476
 21
10.069502447001
 31
0.0
1001
ACAD
1000
TCW40_DEV_WIDTH
1002
{
1040
-3.0
1002
}
  0
ARC
  5
41D
100
AcDbEntity
  8
CAD
  6
Continuous
 62
           5
100
AcDbCircle
 10
-29.105162600977
 20
10.047358797972
 30
0.0
 40
0.1
100
AcDbArc
 50
167.206581005709
 51
268.656741768
1001
ACAD
1000
TCW40_DEV_WIDTH
1002
{
1040
-3.0
1002
}
  0
ARC
  5
41E
100
AcDbEntity
  8
CAD
  6
Continuous
 62
           5
100
AcDbCircle
 10
-29.673027550576
 20
10.597238526
 30
0.0
 40
0.18225284052
100
AcDbArc
 50
31.064315463165
 51
74.352533745894
1001
ACAD
1000
TCW40_DEV_WIDTH
1002
{
1040
-3.0
1002
}
  0
ARC
  5
41F
100
AcDbEntity
  8
CAD
  6
Continuous
 62
           5
100
AcDbCircle
 10
-29.629265095244
 20
10.75347818729
 30
0.0
 40
0.02
100
AcDbArc
 50
74.352533745895
 51
207.192414032289
1001
ACAD
1000
TCW40_DEV_WIDTH
1002
{
1040
-3.0
1002
}
  0
ARC
  5
420
100
AcDbEntity
  8
CAD
  6
Continuous
 62
           5
100
AcDbCircle
 10
-29.347024591544
 20
10.466100320725
 30
0.0
 40
0.121804843576
100
AcDbArc
 50
-61.343258231999
 51
-2.807585967714
1001
ACAD
1000
TCW40_DEV_WIDTH
1002
{
1040
-3.0
1002
}
  0
LINE
  5
421
100
AcDbEntity
  8
CAD
  6
Continuous
 62
           5
100
AcDbLine
 10
-29.516911841059
 20
10.691280979814
 30
0.0
 11
-29.491085928911
 21
10.607884848529
 31
0.0
1001
ACAD
1000
TCW40_DEV_WIDTH
1002
{
1040
-3.0
1002
}
  0
LINE
  5
422
100
AcDbEntity
  8
CAD
  6
Continuous
 62
           5
100
AcDbLine
 10
-29.491085928911
 20
10.607884848529
 30
0.0
 11
-29.432092275486
 21
10.417384608387
 31
0.0
1001
ACAD
1000
TCW40_DEV_WIDTH
1002
{
1040
-3.0
1002
}
  0
ARC
  5
423
100
AcDbEntity
  8
CAD
  6
Continuous
 62
           5
100
AcDbCircle
 10
-29.336567836413
 20
10.446966385544
 30
0.0
 40
0.1
100
AcDbArc
 50
-162.793418994291
 51
-61.343258231998
1001
ACAD
1000
TCW40_DEV_WIDTH
1002
{
1040
-3.0
1002
}
  0
LINE
  5
424
100
AcDbEntity
  8
CAD
  6
Continuous
 62
           5
100
AcDbLine
 10
-9.5625
 20
8.4
 30
0.0
 11
-9.5625
 21
10.6
 31
0.0
1001
ACAD
1000
TCW40_DEV_WIDTH
1002
{
1040
-3.0
1002
}
  0
LINE
  5
425
100
AcDbEntity
  8
CAD
  6
Continuous
 62
           5
100
AcDbLine
 10
-9.9375
 20
8.4
 30
0.0
 11
-9.5625
 21
8.4
 31
0.0
1001
ACAD
1000
TCW40_DEV_WIDTH
1002
{
1040
-3.0
1002
}
  0
LINE
  5
426
100
AcDbEntity
  8
CAD
  6
Continuous
 62
           5
100
AcDbLine
 10
-9.9375
 20
10.6
 30
0.0
 11
-9.9375
 21
8.4
 31
0.0
1001
ACAD
1000
TCW40_DEV_WIDTH
1002
{
1040
-3.0
1002
}
  0
LINE
  5
427
100
AcDbEntity
  8
CAD
  6
Continuous
 62
           5
100
AcDbLine
 10
-9.5625
 20
10.6
 30
0.0
 11
-9.9375
 21
10.6
 31
0.0
1001
ACAD
1000
TCW40_DEV_WIDTH
1002
{
1040
-3.0
1002
}
  0
LINE
  5
428
100
AcDbEntity
  8
CAD
  6
Continuous
 62
           5
100
AcDbLine
 10
-9.5625
 20
10.4
 30
0.0
 11
-9.9375
 21
10.4
 31
0.0
1001
ACAD
1000
TCW40_DEV_WIDTH
1002
{
1040
-3.0
1002
}
  0
LINE
  5
429
100
AcDbEntity
  8
CAD
  6
Continuous
 62
           5
100
AcDbLine
 10
-9.5625
 20
10.0
 30
0.0
 11
-9.9375
 21
10.0
 31
0.0
1001
ACAD
1000
TCW40_DEV_WIDTH
1002
{
1040
-3.0
1002
}
  0
LINE
  5
42A
100
AcDbEntity
  8
CAD
  6
Continuous
 62
           5
100
AcDbLine
 10
-9.5625
 20
9.6
 30
0.0
 11
-9.9375
 21
9.6
 31
0.0
1001
ACAD
1000
TCW40_DEV_WIDTH
1002
{
1040
-3.0
1002
}
  0
LINE
  5
42B
100
AcDbEntity
  8
CAD
  6
Continuous
 62
           5
100
AcDbLine
 10
-9.5625
 20
9.2
 30
0.0
 11
-9.9375
 21
9.2
 31
0.0
1001
ACAD
1000
TCW40_DEV_WIDTH
1002
{
1040
-3.0
1002
}
  0
LINE
  5
42C
100
AcDbEntity
  8
CAD
  6
Continuous
 62
           5
100
AcDbLine
 10
-9.5625
 20
8.9
 30
0.0
 11
-9.9375
 21
8.9
 31
0.0
1001
ACAD
1000
TCW40_DEV_WIDTH
1002
{
1040
-3.0
1002
}
  0
LINE
  5
42D
100
AcDbEntity
  8
CAD
  6
Continuous
 62
           5
100
AcDbLine
 10
-9.5625
 20
8.5
 30
0.0
 11
-9.9375
 21
8.5
 31
0.0
1001
ACAD
1000
TCW40_DEV_WIDTH
1002
{
1040
-3.0
1002
}
  0
LINE
  5
42E
100
AcDbEntity
  8
CAD
  6
Continuous
 62
           5
100
AcDbLine
 10
-9.5625
 20
8.7
 30
0.0
 11
-9.9375
 21
8.7
 31
0.0
1001
ACAD
1000
TCW40_DEV_WIDTH
1002
{
1040
-3.0
1002
}
  0
LINE
  5
42F
100
AcDbEntity
  8
CAD
  6
Continuous
 62
           5
100
AcDbLine
 10
-11.147676493967
 20
10.016852610578
 30
0.0
 11
-11.147676493967
 21
9.016852610578
 31
0.0
1001
ACAD
1000
TCW40_DEV_WIDTH
1002
{
1040
-3.0
1002
}
  0
LINE
  5
430
100
AcDbEntity
  8
CAD
  6
Continuous
 62
           5
100
AcDbLine
 10
-11.147676493967
 20
9.016852610578
 30
0.0
 11
-10.397676493967
 21
9.016852610578
 31
0.0
1001
ACAD
1000
TCW40_DEV_WIDTH
1002
{
1040
-3.0
1002
}
  0
LINE
  5
431
100
AcDbEntity
  8
CAD
  6
Continuous
 62
           5
100
AcDbLine
 10
-10.397676493967
 20
9.016852610578
 30
0.0
 11
-10.397676493967
 21
10.016852610578
 31
0.0
1001
ACAD
1000
TCW40_DEV_WIDTH
1002
{
1040
-3.0
1002
}
  0
LINE
  5
432
100
AcDbEntity
  8
CAD
  6
Continuous
 62
           5
100
AcDbLine
 10
-10.397676493967
 20
10.016852610578
 30
0.0
 11
-11.147676493967
 21
10.016852610578
 31
0.0
1001
ACAD
1000
TCW40_DEV_WIDTH
1002
{
1040
-3.0
1002
}
  0
LINE
  5
433
100
AcDbEntity
  8
CAD
  6
Continuous
 62
           5
100
AcDbLine
 10
-10.379761147631
 20
11.033700468061
 30
0.0
 11
-10.379761147631
 21
4.033700468061
 31
0.0
1001
ACAD
1000
TCW40_DEV_WIDTH
1002
{
1040
-3.0
1002
}
  0
LINE
  5
434
100
AcDbEntity
  8
CAD
  6
Continuous
 62
           5
100
AcDbLine
 10
-10.379761147631
 20
4.033700468061
 30
0.0
 11
-10.004761147631
 21
4.033700468061
 31
0.0
1001
ACAD
1000
TCW40_DEV_WIDTH
1002
{
1040
-3.0
1002
}
  0
LINE
  5
435
100
AcDbEntity
  8
CAD
  6
Continuous
 62
           5
100
AcDbLine
 10
-10.004761147631
 20
4.033700468061
 30
0.0
 11
-10.004761147631
 21
11.033700468061
 31
0.0
1001
ACAD
1000
TCW40_DEV_WIDTH
1002
{
1040
-3.0
1002
}
  0
LINE
  5
436
100
AcDbEntity
  8
CAD
  6
Continuous
 62
           5
100
AcDbLine
 10
-10.004761147631
 20
11.033700468061
 30
0.0
 11
-10.379761147631
 21
11.033700468061
 31
0.0
1001
ACAD
1000
TCW40_DEV_WIDTH
1002
{
1040
-3.0
1002
}
  0
TEXT
  5
437
100
AcDbEntity
  8
CAD
  6
Continuous
 62
           5
100
AcDbText
 10
-10.076919891086
 20
7.463173051431
 30
0.0
 40
0.196850396693
  1
3/8" Plate
 50
90.000002504478
  7
Arial
 72
           1
 11
-10.076919916108
 21
8.056439977931
 31
0.0
100
AcDbText
1001
TCAD
1000
TCW40_TEXT
1002
{
1000
Arial
1070
           0
1070
        1026
1002
}
  0
MTEXT
  5
438
100
AcDbEntity
  8
CAD
 62
           5
100
AcDbMText
 10
-9.935188490851
 20
11.779234446106
 30
0.0
 40
0.196850395203
 41
0.0
 71
           1
 72
           1
  1
12 T Ratchet\p\pand Pawl
 11
0.020525304773
 21
0.999789333742
 31
0.0
 73
           1
 44
1.0
1001
TCAD
1000
TCW_REFPOINT
1002
{
1010
-9.935188490851
1020
11.779234446106
1030
0.0
1002
}
1000
TCW40_TEXT
1002
{
1000
txt.shx
1070
           0
1070
         257
1002
}
  0
TEXT
  5
439
100
AcDbEntity
  8
CAD
  6
Continuous
 62
           5
100
AcDbText
 10
-8.931654044958
 20
10.882690705345
 30
0.0
 40
0.196850396693
  1
12 T Sprocket
 50
90.000002504478
  7
Arial
 72
           1
 11
-8.93165408157
 21
11.741113137072
 31
0.0
100
AcDbText
1001
TCAD
1000
TCW40_TEXT
1002
{
1000
Arial
1070
           0
1070
        1026
1002
}
  0
LINE
  5
43A
100
AcDbEntity
  8
CAD
  6
Continuous
 62
           5
100
AcDbLine
 10
-9.964608909348
 20
10.092338820542
 30
0.0
 11
-9.602606596931
 21
10.092338820542
 31
0.0
1001
ACAD
1000
TCW40_DEV_WIDTH
1002
{
1040
-3.0
1002
}
  0
LINE
  5
43B
100
AcDbEntity
  8
CAD
  6
Continuous
 62
           5
100
AcDbLine
 10
-9.602606596931
 20
10.092338820542
 30
0.0
 11
-9.602606596931
 21
11.465451040058
 31
0.0
1001
ACAD
1000
TCW40_DEV_WIDTH
1002
{
1040
-3.0
1002
}
  0
LINE
  5
43C
100
AcDbEntity
  8
CAD
  6
Continuous
 62
           5
100
AcDbLine
 10
-9.602606596931
 20
11.465451040058
 30
0.0
 11
-9.964608909348
 21
11.465451040058
 31
0.0
1001
ACAD
1000
TCW40_DEV_WIDTH
1002
{
1040
-3.0
1002
}
  0
LINE
  5
43D
100
AcDbEntity
  8
CAD
  6
Continuous
 62
           5
100
AcDbLine
 10
-9.964608909348
 20
11.465451040058
 30
0.0
 11
-9.964608909348
 21
10.092338820542
 31
0.0
1001
ACAD
1000
TCW40_DEV_WIDTH
1002
{
1040
-3.0
1002
}
  0
LINE
  5
43E
100
AcDbEntity
  8
CAD
  6
Continuous
 62
           5
100
AcDbLine
 10
-10.488888120436
 20
10.466823971319
 30
0.0
 11
-9.477778213338
 21
10.466823971319
 31
0.0
1001
ACAD
1000
TCW40_DEV_WIDTH
1002
{
1040
-3.0
1002
}
  0
LINE
  5
43F
100
AcDbEntity
  8
CAD
  6
Continuous
 62
           5
100
AcDbLine
 10
-9.477778213338
 20
10.466823971319
 30
0.0
 11
-9.477778213338
 21
10.791377768659
 31
0.0
1001
ACAD
1000
TCW40_DEV_WIDTH
1002
{
1040
-3.0
1002
}
  0
LINE
  5
440
100
AcDbEntity
  8
CAD
  6
Continuous
 62
           5
100
AcDbLine
 10
-9.477778213338
 20
10.791377768659
 30
0.0
 11
-10.488888120436
 21
10.791377768659
 31
0.0
1001
ACAD
1000
TCW40_DEV_WIDTH
1002
{
1040
-3.0
1002
}
  0
LINE
  5
441
100
AcDbEntity
  8
CAD
  6
Continuous
 62
           5
100
AcDbLine
 10
-10.488888120436
 20
10.791377768659
 30
0.0
 11
-10.488888120436
 21
10.466823971319
 31
0.0
1001
ACAD
1000
TCW40_DEV_WIDTH
1002
{
1040
-3.0
1002
}
  0
LINE
  5
442
100
AcDbEntity
  8
CAD
  6
Continuous
 62
           5
100
AcDbLine
 10
-12.030738927883
 20
0.322603692641
 30
0.0
 11
-9.564050500839
 21
-1.46793663765
 31
0.0
1001
ACAD
1000
TCW40_DEV_WIDTH
1002
{
1040
-3.0
1002
}
  0
LINE
  5
443
100
AcDbEntity
  8
CAD
  6
Continuous
 62
           5
100
AcDbLine
 10
-11.672149819027
 20
0.814621307117
 30
0.0
 11
-9.162032637651
 21
-1.007443448907
 31
0.0
1001
ACAD
1000
TCW40_DEV_WIDTH
1002
{
1040
-3.0
1002
}
  0
LINE
  5
444
100
AcDbEntity
  8
CAD
  6
Continuous
 62
           5
100
AcDbLine
 10
-9.564050500839
 20
-1.46793663765
 30
0.0
 11
-9.1875
 21
-1.0
 31
0.0
1001
ACAD
1000
TCW40_DEV_WIDTH
1002
{
1040
-3.0
1002
}
  0
CIRCLE
  5
445
100
AcDbEntity
  8
CAD
  6
Continuous
 62
           5
100
AcDbCircle
 10
-9.622525826393
 20
-1.058609358767
 30
0.0
 40
0.477299807696
1001
ACAD
1000
TCW40_DEV_WIDTH
1002
{
1040
-3.0
1002
}
  0
LINE
  5
446
100
AcDbEntity
  8
CAD
  6
Continuous
 62
           5
100
AcDbLine
 10
-12.030738927883
 20
0.322603692641
 30
0.0
 11
-11.672149819027
 21
0.814621307117
 31
0.0
1001
ACAD
1000
TCW40_DEV_WIDTH
1002
{
1040
-3.0
1002
}
  0
LINE
  5
447
100
AcDbEntity
  8
CAD
  6
Continuous
 62
           5
100
AcDbLine
 10
-11.772768464392
 20
0.589275828645
 30
0.0
 11
-11.55905135049
 21
0.64270510712
 31
0.0
1001
ACAD
1000
TCW40_DEV_WIDTH
1002
{
1040
-3.0
1002
}
  0
LINE
  5
448
100
AcDbEntity
  8
CAD
  6
Continuous
 62
           5
100
AcDbLine
 10
-11.886109079764
 20
0.400374803025
 30
0.0
 11
-11.772768464392
 21
0.589275828645
 31
0.0
1001
ACAD
1000
TCW40_DEV_WIDTH
1002
{
1040
-3.0
1002
}
  0
LINE
  5
449
100
AcDbEntity
  8
CAD
  6
Continuous
 62
           5
100
AcDbLine
 10
-11.832679801289
 20
0.186657689123
 30
0.0
 11
-11.886109079764
 21
0.400374803025
 31
0.0
1001
ACAD
1000
TCW40_DEV_WIDTH
1002
{
1040
-3.0
1002
}
  0
LINE
  5
44A
100
AcDbEntity
  8
CAD
  6
Continuous
 62
           5
100
AcDbLine
 10
-11.643778775669
 20
0.073317073751
 30
0.0
 11
-11.832679801289
 21
0.186657689123
 31
0.0
1001
ACAD
1000
TCW40_DEV_WIDTH
1002
{
1040
-3.0
1002
}
  0
LINE
  5
44B
100
AcDbEntity
  8
CAD
  6
Continuous
 62
           5
100
AcDbLine
 10
-11.430061661767
 20
0.126746352226
 30
0.0
 11
-11.643778775669
 21
0.073317073751
 31
0.0
1001
ACAD
1000
TCW40_DEV_WIDTH
1002
{
1040
-3.0
1002
}
  0
LINE
  5
44C
100
AcDbEntity
  8
CAD
  6
Continuous
 62
           5
100
AcDbLine
 10
-11.316721046395
 20
0.315647377846
 30
0.0
 11
-11.430061661767
 21
0.126746352226
 31
0.0
1001
ACAD
1000
TCW40_DEV_WIDTH
1002
{
1040
-3.0
1002
}
  0
LINE
  5
44D
100
AcDbEntity
  8
CAD
  6
Continuous
 62
           5
100
AcDbLine
 10
-11.37015032487
 20
0.529364491748
 30
0.0
 11
-11.316721046395
 21
0.315647377846
 31
0.0
1001
ACAD
1000
TCW40_DEV_WIDTH
1002
{
1040
-3.0
1002
}
  0
LINE
  5
44E
100
AcDbEntity
  8
CAD
  6
Continuous
 62
           5
100
AcDbLine
 10
-11.55905135049
 20
0.64270510712
 30
0.0
 11
-11.37015032487
 21
0.529364491748
 31
0.0
1001
ACAD
1000
TCW40_DEV_WIDTH
1002
{
1040
-3.0
1002
}
  0
CIRCLE
  5
44F
100
AcDbEntity
  8
CAD
  6
Continuous
 62
           5
100
AcDbCircle
 10
-11.601415063079
 20
0.358011090436
 30
0.0
 40
0.099259600494
1001
ACAD
1000
TCW40_DEV_WIDTH
1002
{
1040
-3.0
1002
}
  0
CIRCLE
  5
450
100
AcDbEntity
  8
CAD
  6
Continuous
 62
           5
100
AcDbCircle
 10
-9.622525826393
 20
-1.058609358767
 30
0.0
 40
0.153343938051
1001
ACAD
1000
TCW40_DEV_WIDTH
1002
{
1040
-3.0
1002
}
  0
TEXT
  5
451
100
AcDbEntity
  8
CAD
  6
Continuous
 62
           5
100
AcDbText
 10
-11.773470145218
 20
0.909856851421
 30
0.0
 40
0.196850396693
  1
Brake Leaver
 50
90.000002504478
  7
Arial
 72
           1
 11
-11.773470180241
 21
1.731919716662
 31
0.0
100
AcDbText
1001
TCAD
1000
TCW40_TEXT
1002
{
1000
Arial
1070
           0
1070
        1026
1002
}
  0
TEXT
  5
452
100
AcDbEntity
  8
CAD
  6
Continuous
 62
           5
100
AcDbText
 10
-11.306944975398
 20
0.042234536973
 30
0.0
 40
0.196850396693
  1
Brake Crank
 50
-36.000001001791
  7
Arial
 72
           1
 11
-10.686931459922
 21
-0.408231667646
 31
0.0
100
AcDbText
1001
TCAD
1000
TCW40_TEXT
1002
{
1000
Arial
1070
           0
1070
        1026
1002
}
  0
LINE
  5
453
100
AcDbEntity
  8
CAD
  6
Continuous
 62
           5
100
AcDbLine
 10
-17.103865689063
 20
-9.005038574083
 30
0.0
 11
-17.103865689063
 21
-10.005038574083
 31
0.0
1001
ACAD
1000
TCW40_DEV_WIDTH
1002
{
1040
-3.0
1002
}
  0
LINE
  5
454
100
AcDbEntity
  8
CAD
  6
Continuous
 62
           5
100
AcDbLine
 10
-7.603865689063
 20
-9.005038574083
 30
0.0
 11
-7.603865689063
 21
-10.005038574083
 31
0.0
1001
ACAD
1000
TCW40_DEV_WIDTH
1002
{
1040
-3.0
1002
}
  0
LINE
  5
455
100
AcDbEntity
  8
CAD
  6
Continuous
 62
           5
100
AcDbLine
 10
-15.103865689063
 20
-8.005038574083
 30
0.0
 11
-16.103865689063
 21
-8.005038574083
 31
0.0
1001
ACAD
1000
TCW40_DEV_WIDTH
1002
{
1040
-3.0
1002
}
  0
LINE
  5
456
100
AcDbEntity
  8
CAD
  6
Continuous
 62
           5
100
AcDbLine
 10
-8.603865689063
 20
-8.005038574083
 30
0.0
 11
-9.403865689063
 21
-8.005038574083
 31
0.0
1001
ACAD
1000
TCW40_DEV_WIDTH
1002
{
1040
-3.0
1002
}
  0
ARC
  5
457
100
AcDbEntity
  8
CAD
  6
Continuous
 62
           5
100
AcDbCircle
 10
-15.103865689063
 20
-7.005038574083
 30
0.0
 40
1.0
100
AcDbArc
 50
-90.0
 51
0.0
1001
ACAD
1000
TCW40_DEV_WIDTH
1002
{
1040
-3.0
1002
}
  0
ARC
  5
458
100
AcDbEntity
  8
CAD
  6
Continuous
 62
           5
100
AcDbCircle
 10
-16.103865689063
 20
-9.005038574083
 30
0.0
 40
1.0
100
AcDbArc
 50
90.0
 51
180.0
1001
ACAD
1000
TCW40_DEV_WIDTH
1002
{
1040
-3.0
1002
}
  0
ARC
  5
459
100
AcDbEntity
  8
CAD
  6
Continuous
 62
           5
100
AcDbCircle
 10
-8.603865689063
 20
-9.005038574083
 30
0.0
 40
1.0
100
AcDbArc
 50
0.0
 51
90.0
1001
ACAD
1000
TCW40_DEV_WIDTH
1002
{
1040
-3.0
1002
}
  0
ARC
  5
45A
100
AcDbEntity
  8
CAD
  6
Continuous
 62
           5
100
AcDbCircle
 10
-9.403865689063
 20
-7.805038574083
 30
0.0
 40
0.2
100
AcDbArc
 50
180.0
 51
270.0
1001
ACAD
1000
TCW40_DEV_WIDTH
1002
{
1040
-3.0
1002
}
  0
ENDSEC
  0
SECTION
  2
OBJECTS
  0
DICTIONARY
  5
19
100
AcDbDictionary
280
           0
281
           1
  3
ACAD_GROUP
350
1A
  3
ACAD_MLINESTYLE
350
1B
  3
ACAD_LAYOUT
350
1E
  3
ACAD_PLOTSETTINGS
350
22
  3
ACAD_PLOTSTYLENAME
350
1F
  0
DICTIONARY
  5
1A
102
{ACAD_REACTORS
330
19
102
}
100
AcDbDictionary
280
           0
281
           1
  0
DICTIONARY
  5
1B
102
{ACAD_REACTORS
330
19
102
}
100
AcDbDictionary
280
           0
281
           1
  3
Standard
350
1C
  0
MLINESTYLE
  5
1C
100
AcDbMlineStyle
  2
STANDARD
 70
           0
  3

 62
         256
 51
90.0
 52
90.0
 71
           2
 49
0.5
 62
         256
  6
ByLayer
 49
-0.5
 62
         256
  6
ByLayer
  0
ACDBDICTIONARYWDFLT
  5
1F
102
{ACAD_REACTORS
330
19
102
}
100
AcDbDictionary
281
           1
  3
Normal
350
1D
100
AcDbDictionaryWithDefault
340
1D
  0
ACDBPLACEHOLDER
  5
1D
102
{ACAD_REACTORS
330
1F
102
}
  0
LAYOUT
  5
21
102
{ACAD_REACTORS
330
1E
102
}
100
AcDbPlotSettings
  1

  2

  4

  6

 40
0.0
 41
0.0
 42
0.0
 43
0.0
 44
0.0
 45
0.0
 46
0.0
 47
0.0
 48
0.0
 49
0.0
140
0.0
141
0.0
142
1.0
143
1.0
 70
           0
 72
           0
 73
           0
 74
           0
  7

 75
           0
147
1.0
148
0.0
149
0.0
100
AcDbLayout
  1
Layout1
 70
           0
 71
           0
 10
0.0
 20
0.0
 11
0.0
 21
0.0
 12
0.0
 22
0.0
 32
0.0
 14
0.0
 24
0.0
 34
0.0
 15
0.0
 25
0.0
 35
0.0
146
0.0
 13
0.0
 23
0.0
 33
0.0
 16
0.0
 26
0.0
 36
0.0
 17
0.0
 27
0.0
 37
0.0
 76
           0
330
B
331
0
345
0
346
0
  0
DICTIONARY
  5
1E
102
{ACAD_REACTORS
330
19
102
}
100
AcDbDictionary
280
           0
281
           1
  3
Model
350
45B
  3
Layout1
350
45F
  3
Layout2
350
460
  0
DICTIONARY
  5
22
102
{ACAD_REACTORS
330
19
102
}
100
AcDbDictionary
280
           0
281
           1
  0
LAYOUT
  5
45B
100
AcDbPlotSettings
  1

  2

  4

  6

 40
0.0
 41
0.0
 42
0.0
 43
0.0
 44
0.0
 45
0.0
 46
0.0
 47
0.0
 48
0.0
 49
0.0
140
0.0
141
0.0
142
1.0
143
1.0
 70
           0
 72
           0
 73
           0
 74
           0
  7

 75
           0
147
1.0
148
0.0
149
0.0
100
AcDbLayout
  1
Model
 70
           0
 71
           0
 10
0.0
 20
0.0
 11
0.0
 21
0.0
 12
0.0
 22
0.0
 32
0.0
 14
0.0
 24
0.0
 34
0.0
 15
0.0
 25
0.0
 35
0.0
146
0.0
 13
0.0
 23
0.0
 33
0.0
 16
0.0
 26
0.0
 36
0.0
 17
0.0
 27
0.0
 37
0.0
 76
           0
330
A
331
0
345
0
346
0
  0
LAYOUT
  5
45F
100
AcDbPlotSettings
  1

  2
none_device
  4

  6

 40
0.0
 41
0.0
 42
0.0
 43
0.0
 44
304.8
 45
228.6
 46
0.0
 47
0.0
 48
0.0
 49
0.0
140
0.0
141
0.0
142
1.0
143
1.0
 70
           0
 72
           0
 73
           0
 74
           0
  7

 75
           0
147
1.0
148
0.0
149
0.0
100
AcDbLayout
  1
Layout1
 70
           1
 71
           1
 10
0.0
 20
0.0
 11
304.8
 21
228.6
 12
0.0
 22
0.0
 32
0.0
 14
0.0
 24
0.0
 34
0.0
 15
0.0
 25
0.0
 35
0.0
146
0.0
 13
0.0
 23
0.0
 33
0.0
 16
0.0
 26
0.0
 36
0.0
 17
0.0
 27
0.0
 37
0.0
 76
           0
330
45C
331
0
345
0
346
0
  0
LAYOUT
  5
460
100
AcDbPlotSettings
  1

  2
none_device
  4

  6

 40
0.0
 41
0.0
 42
0.0
 43
0.0
 44
0.0
 45
0.0
 46
0.0
 47
0.0
 48
0.0
 49
0.0
140
0.0
141
0.0
142
1.0
143
1.0
 70
           0
 72
           0
 73
           0
 74
           0
  7

 75
           0
147
1.0
148
0.0
149
0.0
100
AcDbLayout
  1
Layout2
 70
           1
 71
           2
 10
0.0
 20
0.0
 11
0.0
 21
0.0
 12
0.0
 22
0.0
 32
0.0
 14
0.0
 24
0.0
 34
0.0
 15
0.0
 25
0.0
 35
0.0
146
0.0
 13
0.0
 23
0.0
 33
0.0
 16
0.0
 26
0.0
 36
0.0
 17
0.0
 27
0.0
 37
0.0
 76
           0
330
B
331
0
345
0
346
0
  0
ENDSEC
  0
EOF
